  0
SECTION
  2
HEADER
  9
$ACADVER
  1
AC1014
  9
$ACADMAINTVER
 70
     5
  9
$DWGCODEPAGE
  3
ANSI_1252
  9
$INSBASE
 10
-725.769999
 20
343.6
 30
0.0
  9
$EXTMIN
 10
-944.146885
 20
343.442511
 30
-0.000006
  9
$EXTMAX
 10
-381.64852
 20
1204.133427
 30
0.421751
  9
$LIMMIN
 10
0.0
 20
0.0
  9
$LIMMAX
 10
3360.0
 20
2376.0
  9
$ORTHOMODE
 70
     1
  9
$REGENMODE
 70
     1
  9
$FILLMODE
 70
     1
  9
$QTEXTMODE
 70
     0
  9
$MIRRTEXT
 70
     0
  9
$DRAGMODE
 70
     2
  9
$LTSCALE
 40
1.0
  9
$OSMODE
 70
     0
  9
$ATTMODE
 70
     1
  9
$TEXTSIZE
 40
3.5
  9
$TRACEWID
 40
0.05
  9
$TEXTSTYLE
  7
ROMANS
  9
$CLAYER
  8
035-DWG
  9
$CELTYPE
  6
BYLAYER
  9
$CECOLOR
 62
   256
  9
$CELTSCALE
 40
1.0
  9
$DELOBJ
 70
     1
  9
$DISPSILH
 70
     0
  9
$DIMSCALE
 40
8.0
  9
$DIMASZ
 40
2.5
  9
$DIMEXO
 40
1.5
  9
$DIMDLI
 40
5.0
  9
$DIMRND
 40
0.0
  9
$DIMDLE
 40
0.0
  9
$DIMEXE
 40
1.0
  9
$DIMTP
 40
0.0
  9
$DIMTM
 40
0.0
  9
$DIMTXT
 40
3.0
  9
$DIMCEN
 40
-2.0
  9
$DIMTSZ
 40
0.0
  9
$DIMTOL
 70
     0
  9
$DIMLIM
 70
     0
  9
$DIMTIH
 70
     0
  9
$DIMTOH
 70
     0
  9
$DIMSE1
 70
     0
  9
$DIMSE2
 70
     0
  9
$DIMTAD
 70
     1
  9
$DIMZIN
 70
     8
  9
$DIMBLK
  1

  9
$DIMASO
 70
     1
  9
$DIMSHO
 70
     1
  9
$DIMPOST
  1

  9
$DIMAPOST
  1

  9
$DIMALT
 70
     0
  9
$DIMALTD
 70
     2
  9
$DIMALTF
 40
25.4
  9
$DIMLFAC
 40
1.0
  9
$DIMTOFL
 70
     1
  9
$DIMTVP
 40
0.0
  9
$DIMTIX
 70
     0
  9
$DIMSOXD
 70
     0
  9
$DIMSAH
 70
     0
  9
$DIMBLK1
  1

  9
$DIMBLK2
  1

  9
$DIMSTYLE
  2
STANDAARD
  9
$DIMCLRD
 70
   256
  9
$DIMCLRE
 70
   256
  9
$DIMCLRT
 70
   256
  9
$DIMTFAC
 40
0.75
  9
$DIMGAP
 40
1.5
  9
$DIMJUST
 70
     0
  9
$DIMSD1
 70
     0
  9
$DIMSD2
 70
     0
  9
$DIMTOLJ
 70
     1
  9
$DIMTZIN
 70
     8
  9
$DIMALTZ
 70
     8
  9
$DIMALTTZ
 70
     8
  9
$DIMFIT
 70
     3
  9
$DIMUPT
 70
     0
  9
$DIMUNIT
 70
     2
  9
$DIMDEC
 70
     0
  9
$DIMTDEC
 70
     1
  9
$DIMALTU
 70
     2
  9
$DIMALTTD
 70
     2
  9
$DIMTXSTY
  7
ROMANS
  9
$DIMAUNIT
 70
     0
  9
$LUNITS
 70
     2
  9
$LUPREC
 70
     4
  9
$SKETCHINC
 40
0.1
  9
$FILLETRAD
 40
1.0
  9
$AUNITS
 70
     0
  9
$AUPREC
 70
     4
  9
$MENU
  1
wtb2
  9
$ELEVATION
 40
0.0
  9
$PELEVATION
 40
0.0
  9
$THICKNESS
 40
0.0
  9
$LIMCHECK
 70
     0
  9
$BLIPMODE
 70
     0
  9
$CHAMFERA
 40
0.0
  9
$CHAMFERB
 40
0.0
  9
$CHAMFERC
 40
0.0
  9
$CHAMFERD
 40
0.0
  9
$SKPOLY
 70
     0
  9
$TDCREATE
 40
2451578.409790035
  9
$TDUPDATE
 40
2452583.451605682
  9
$TDINDWG
 40
2.6352461111
  9
$TDUSRTIMER
 40
2.6352461111
  9
$USRTIMER
 70
     1
  9
$ANGBASE
 50
0.0
  9
$ANGDIR
 70
     0
  9
$PDMODE
 70
     3
  9
$PDSIZE
 40
0.0
  9
$PLINEWID
 40
0.0
  9
$COORDS
 70
     2
  9
$SPLFRAME
 70
     0
  9
$SPLINETYPE
 70
     6
  9
$SPLINESEGS
 70
     8
  9
$ATTDIA
 70
     0
  9
$ATTREQ
 70
     1
  9
$HANDLING
 70
     1
  9
$HANDSEED
  5
3D3
  9
$SURFTAB1
 70
     6
  9
$SURFTAB2
 70
     6
  9
$SURFTYPE
 70
     6
  9
$SURFU
 70
     6
  9
$SURFV
 70
     6
  9
$UCSNAME
  2

  9
$UCSORG
 10
0.0
 20
0.0
 30
0.0
  9
$UCSXDIR
 10
1.0
 20
0.0
 30
0.0
  9
$UCSYDIR
 10
0.0
 20
1.0
 30
0.0
  9
$PUCSNAME
  2

  9
$PUCSORG
 10
0.0
 20
0.0
 30
0.0
  9
$PUCSXDIR
 10
1.0
 20
0.0
 30
0.0
  9
$PUCSYDIR
 10
0.0
 20
1.0
 30
0.0
  9
$USERI1
 70
     0
  9
$USERI2
 70
     0
  9
$USERI3
 70
     0
  9
$USERI4
 70
     0
  9
$USERI5
 70
     0
  9
$USERR1
 40
0.0
  9
$USERR2
 40
0.0
  9
$USERR3
 40
0.0
  9
$USERR4
 40
0.0
  9
$USERR5
 40
0.0
  9
$WORLDVIEW
 70
     1
  9
$SHADEDGE
 70
     3
  9
$SHADEDIF
 70
    70
  9
$TILEMODE
 70
     1
  9
$MAXACTVP
 70
    16
  9
$PINSBASE
 10
0.0
 20
0.0
 30
0.0
  9
$PLIMCHECK
 70
     0
  9
$PEXTMIN
 10
1.000000E+20
 20
1.000000E+20
 30
1.000000E+20
  9
$PEXTMAX
 10
-1.000000E+20
 20
-1.000000E+20
 30
-1.000000E+20
  9
$PLIMMIN
 10
0.0
 20
0.0
  9
$PLIMMAX
 10
12.0
 20
9.0
  9
$UNITMODE
 70
     0
  9
$VISRETAIN
 70
     0
  9
$PLINEGEN
 70
     0
  9
$PSLTSCALE
 70
     0
  9
$TREEDEPTH
 70
  3020
  9
$PICKSTYLE
 70
     1
  9
$CMLSTYLE
  2
STANDARD
  9
$CMLJUST
 70
     0
  9
$CMLSCALE
 40
1.0
  9
$PROXYGRAPHICS
 70
     1
  9
$MEASUREMENT
 70
     0
  0
ENDSEC
  0
SECTION
  2
CLASSES
  0
CLASS
  1
LWPOLYLINE
  2
AcDbPolyline
  3
"AutoCAD"
 90
        0
280
     0
281
     1
  0
CLASS
  1
HATCH
  2
AcDbHatch
  3
"ACAD_SEDONA"
 90
        0
280
     0
281
     1
  0
CLASS
  1
ACMDATUMID
  2
AcmDatumId
  3
AutoCadMServices
 90
      255
280
     1
281
     1
  0
CLASS
  1
ACMFCFRAME
  2
AcmFCF
  3
AutoCadMServices
 90
      255
280
     1
281
     1
  0
CLASS
  1
AMLOADER
  2
AMLoader
  3
AMAcad
 90
        0
280
     0
281
     0
  0
ENDSEC
  0
SECTION
  2
TABLES
  0
TABLE
  2
VPORT
  5
12
100
AcDbSymbolTable
 70
     2
  0
VPORT
  5
3D2
100
AcDbSymbolTableRecord
100
AcDbViewportTableRecord
  2
*ACTIVE
 70
     0
 10
0.0
 20
0.0
 11
1.0
 21
1.0
 12
-662.897702
 22
773.787969
 13
0.0
 23
0.0
 14
20.0
 24
20.0
 15
40.0
 25
40.0
 16
0.0
 26
0.0
 36
1.0
 17
0.0
 27
0.0
 37
0.0
 40
870.379745
 41
1.650376
 42
50.0
 43
0.0
 44
0.0
 50
0.0
 51
0.0
 71
     0
 72
 20000
 73
     1
 74
     0
 75
     0
 76
     0
 77
     0
 78
     1
  0
ENDTAB
  0
TABLE
  2
LTYPE
  5
D
100
AcDbSymbolTable
 70
     1
  0
LTYPE
  5
E
100
AcDbSymbolTableRecord
100
AcDbLinetypeTableRecord
  2
BYBLOCK
 70
     0
  3

 72
    65
 73
     0
 40
0.0
  0
LTYPE
  5
F
100
AcDbSymbolTableRecord
100
AcDbLinetypeTableRecord
  2
BYLAYER
 70
     0
  3

 72
    65
 73
     0
 40
0.0
  0
LTYPE
  5
5
100
AcDbSymbolTableRecord
100
AcDbLinetypeTableRecord
  2
CONTINUOUS
 70
     0
  3
Solid line
 72
    65
 73
     0
 40
0.0
  0
ENDTAB
  0
TABLE
  2
LAYER
  5
A
100
AcDbSymbolTable
 70
     3
  0
LAYER
  5
4
100
AcDbSymbolTableRecord
100
AcDbLayerTableRecord
  2
0
 70
     0
 62
     8
  6
CONTINUOUS
  0
LAYER
  5
21
100
AcDbSymbolTableRecord
100
AcDbLayerTableRecord
  2
025-DWG
 70
     0
 62
     7
  6
CONTINUOUS
  0
LAYER
  5
1B
100
AcDbSymbolTableRecord
100
AcDbLayerTableRecord
  2
035-DWG
 70
     0
 62
     2
  6
CONTINUOUS
  0
ENDTAB
  0
TABLE
  2
STYLE
  5
B
100
AcDbSymbolTable
 70
     2
  0
STYLE
  5
C
100
AcDbSymbolTableRecord
100
AcDbTextStyleTableRecord
  2
STANDARD
 70
     0
 40
0.0
 41
1.0
 50
0.0
 71
     0
 42
15.0
  3
txt
  4

  0
STYLE
  5
1C
100
AcDbSymbolTableRecord
100
AcDbTextStyleTableRecord
  2
ROMANS
 70
     0
 40
0.0
 41
1.0
 50
0.0
 71
     0
 42
3.5
  3
romans
  4

  0
ENDTAB
  0
TABLE
  2
VIEW
  5
10
100
AcDbSymbolTable
 70
     0
  0
ENDTAB
  0
TABLE
  2
UCS
  5
11
100
AcDbSymbolTable
 70
     0
  0
ENDTAB
  0
TABLE
  2
APPID
  5
14
100
AcDbSymbolTable
 70
     1
  0
APPID
  5
15
100
AcDbSymbolTableRecord
100
AcDbRegAppTableRecord
  2
ACAD
 70
     0
  0
ENDTAB
  0
TABLE
  2
DIMSTYLE
  5
16
100
AcDbSymbolTable
 70
     1
  0
DIMSTYLE
105
1E
100
AcDbSymbolTableRecord
100
AcDbDimStyleTableRecord
  2
STANDAARD
 70
     0
  3

  4

  5

  6

  7

 40
8.0
 41
2.5
 42
1.5
 43
5.0
 44
1.0
 45
0.0
 46
0.0
 47
0.0
 48
0.0
140
3.0
141
-2.0
142
0.0
143
25.4
144
1.0
145
0.0
146
0.75
147
1.5
 71
     0
 72
     0
 73
     0
 74
     0
 75
     0
 76
     0
 77
     1
 78
     8
170
     0
171
     2
172
     1
173
     0
174
     0
175
     0
176
   256
177
   256
178
   256
270
     2
271
     0
272
     1
273
     2
274
     2
340
1C
275
     0
280
     0
281
     0
282
     0
283
     1
284
     8
285
     8
286
     8
287
     3
288
     0
  0
ENDTAB
  0
TABLE
  2
BLOCK_RECORD
  5
1
100
AcDbSymbolTable
 70
     0
  0
BLOCK_RECORD
  5
2
100
AcDbSymbolTableRecord
100
AcDbBlockTableRecord
  2
*MODEL_SPACE
  0
BLOCK_RECORD
  5
7
100
AcDbSymbolTableRecord
100
AcDbBlockTableRecord
  2
*PAPER_SPACE
  0
ENDTAB
  0
ENDSEC
  0
SECTION
  2
BLOCKS
  0
BLOCK
  5
3
100
AcDbEntity
  8
0
100
AcDbBlockBegin
  2
*MODEL_SPACE
 70
     0
 10
0.0
 20
0.0
 30
0.0
  3
*MODEL_SPACE
  1

  0
ENDBLK
  5
6
100
AcDbEntity
  8
0
100
AcDbBlockEnd
  0
BLOCK
  5
8
100
AcDbEntity
 67
     1
  8
0
100
AcDbBlockBegin
  2
*PAPER_SPACE
 70
     0
 10
0.0
 20
0.0
 30
0.0
  3
*PAPER_SPACE
  1

  0
ENDBLK
  5
9
100
AcDbEntity
 67
     1
  8
0
100
AcDbBlockEnd
  0
ENDSEC
  0
SECTION
  2
ENTITIES
  0
LINE
  5
1F
100
AcDbEntity
  8
035-DWG
100
AcDbLine
 10
-574.919998
 20
1182.499998
 30
0.0
 11
-587.348426
 21
1194.928427
 31
0.0
  0
LINE
  5
20
100
AcDbEntity
  8
025-DWG
100
AcDbLine
 10
-748.313854
 20
1181.222212
 30
0.0
 11
-748.285981
 21
1196.895367
 31
0.0
  0
LINE
  5
22
100
AcDbEntity
  8
025-DWG
100
AcDbLine
 10
-747.185845
 20
1182.012827
 30
0.0
 11
-747.138083
 21
1197.745612
 31
0.0
  0
LINE
  5
23
100
AcDbEntity
  8
035-DWG
100
AcDbLine
 10
-748.285981
 20
1196.895367
 30
0.0
 11
-752.954591
 21
1181.57296
 31
0.0
  0
LINE
  5
24
100
AcDbEntity
  8
025-DWG
100
AcDbLine
 10
-704.854153
 20
1182.012827
 30
0.0
 11
-704.901916
 21
1197.745612
 31
0.0
  0
LINE
  5
25
100
AcDbEntity
  8
025-DWG
100
AcDbLine
 10
-703.726144
 20
1181.222212
 30
0.0
 11
-703.754017
 21
1196.895367
 31
0.0
  0
LINE
  5
26
100
AcDbEntity
  8
035-DWG
100
AcDbLine
 10
-703.754017
 20
1196.895367
 30
0.0
 11
-699.085408
 21
1181.57296
 31
0.0
  0
LINE
  5
27
100
AcDbEntity
  8
035-DWG
100
AcDbLine
 10
-877.120001
 20
1182.499998
 30
0.0
 11
-864.691572
 21
1194.928427
 31
0.0
  0
LINE
  5
28
100
AcDbEntity
  8
035-DWG
100
AcDbLine
 10
-936.519999
 20
383.3
 30
0.0
 11
-936.519999
 21
960.269091
 31
0.0
  0
LINE
  5
29
100
AcDbEntity
  8
035-DWG
100
AcDbLine
 10
-512.669999
 20
531.560317
 30
0.0
 11
-512.669999
 21
384.4
 31
0.0
  0
LINE
  5
2A
100
AcDbEntity
  8
035-DWG
100
AcDbLine
 10
-516.339341
 20
384.4
 30
0.0
 11
-516.339341
 21
538.7
 31
0.0
  0
LINE
  5
2B
100
AcDbEntity
  8
025-DWG
100
AcDbLine
 10
-514.085625
 20
384.4
 30
0.0
 11
-514.085625
 21
538.7
 31
0.0
  0
LINE
  5
2C
100
AcDbEntity
  8
025-DWG
100
AcDbLine
 10
-513.64916
 20
538.7
 30
0.0
 11
-513.64916
 21
384.4
 31
0.0
  0
LINE
  5
2D
100
AcDbEntity
  8
025-DWG
100
AcDbLine
 10
-516.519999
 20
375.3
 30
0.0
 11
-935.269999
 21
375.3
 31
0.0
  0
LINE
  5
2E
100
AcDbEntity
  8
035-DWG
100
AcDbLine
 10
-520.319999
 20
345.3
 30
0.0
 11
-931.469999
 21
345.3
 31
0.0
  0
LINE
  5
2F
100
AcDbEntity
  8
035-DWG
100
AcDbLine
 10
-515.269999
 20
383.3
 30
0.0
 11
-936.519999
 21
383.3
 31
0.0
  0
LINE
  5
30
100
AcDbEntity
  8
035-DWG
100
AcDbLine
 10
-935.269999
 20
375.3
 30
0.0
 11
-935.269999
 21
349.1
 31
0.0
  0
ARC
  5
31
100
AcDbEntity
  8
035-DWG
100
AcDbCircle
 10
-931.469999
 20
349.1
 30
0.0
 40
3.8
100
AcDbArc
 50
180.0
 51
270.0
  0
ARC
  5
32
100
AcDbEntity
  8
035-DWG
100
AcDbCircle
 10
-935.269999
 20
379.3
 30
0.0
 40
4.0
100
AcDbArc
 50
90.0
 51
270.0
  0
ARC
  5
33
100
AcDbEntity
  8
035-DWG
100
AcDbCircle
 10
-784.369999
 20
353.1
 30
0.0
 40
9.5
100
AcDbArc
 50
235.190305
 51
304.809695
  0
LINE
  5
34
100
AcDbEntity
  8
035-DWG
100
AcDbLine
 10
-516.519999
 20
375.3
 30
0.0
 11
-516.519999
 21
349.1
 31
0.0
  0
ARC
  5
35
100
AcDbEntity
  8
035-DWG
100
AcDbCircle
 10
-520.319999
 20
349.1
 30
0.0
 40
3.8
100
AcDbArc
 50
270.0
 51
360.0
  0
ARC
  5
36
100
AcDbEntity
  8
035-DWG
100
AcDbCircle
 10
-531.819999
 20
351.5785
 30
0.0
 40
7.9785
100
AcDbArc
 50
231.89929
 51
308.10071
  0
LINE
  5
37
100
AcDbEntity
  8
025-DWG
100
AcDbLine
 10
-516.339341
 20
384.4
 30
0.0
 11
-514.085625
 21
384.4
 31
0.0
  0
LINE
  5
38
100
AcDbEntity
  8
035-DWG
100
AcDbLine
 10
-514.14656
 20
383.9
 30
0.0
 11
-516.28504
 21
383.9
 31
0.0
  0
ARC
  5
39
100
AcDbEntity
  8
035-DWG
100
AcDbCircle
 10
-516.519999
 20
379.3
 30
0.0
 40
4.0
100
AcDbArc
 50
270.0
 51
90.0
  0
LINE
  5
3A
100
AcDbEntity
  8
035-DWG
100
AcDbLine
 10
-515.269999
 20
383.9
 30
0.0
 11
-515.269999
 21
383.3
 31
0.0
  0
LWPOLYLINE
  5
3B
100
AcDbEntity
  8
035-DWG
100
AcDbPolyline
 90
       17
 70
     0
 43
0.0
 10
-516.28504
 20
383.9
 10
-516.290171
 20
383.902367
 10
-516.295392
 20
383.909507
 10
-516.300607
 20
383.921475
 10
-516.305719
 20
383.938327
 10
-516.310635
 20
383.960004
 10
-516.315281
 20
383.985982
 10
-516.319588
 20
384.015619
 10
-516.323485
 20
384.048274
 10
-516.326928
 20
384.08337
 10
-516.330077
 20
384.122297
 10
-516.332854
 20
384.164465
 10
-516.335185
 20
384.209283
 10
-516.337006
 20
384.25611
 10
-516.338304
 20
384.304102
 10
-516.339082
 20
384.352364
 10
-516.339341
 20
384.4
  0
ARC
  5
3C
100
AcDbEntity
  8
035-DWG
100
AcDbCircle
 10
-513.169999
 20
384.4
 30
0.0
 40
0.5
100
AcDbArc
 50
270.0
 51
0.0
  0
LINE
  5
3D
100
AcDbEntity
  8
025-DWG
100
AcDbLine
 10
-513.64916
 20
384.4
 30
0.0
 11
-514.085625
 21
384.4
 31
0.0
  0
ELLIPSE
  5
3E
100
AcDbEntity
  8
025-DWG
100
AcDbEllipse
 10
-514.14656
 20
384.4
 30
0.0
 11
0.0000000000318856
 21
0.5
 31
0.0
210
0.0
220
0.0
230
-1.0
 40
0.9948
 41
1.570796326731457
 42
3.141592653525687
  0
ELLIPSE
  5
3F
100
AcDbEntity
  8
025-DWG
100
AcDbEllipse
 10
-514.14656
 20
384.4
 30
0.0
 11
0.0000000000000268
 21
0.5
 31
0.0
210
0.0
220
0.0
230
-1.0
 40
0.121869
 41
1.570796326794435
 42
3.141592653589354
  0
LINE
  5
40
100
AcDbEntity
  8
025-DWG
100
AcDbLine
 10
-512.669999
 20
384.4
 30
0.0
 11
-513.64916
 21
384.4
 31
0.0
  0
LINE
  5
41
100
AcDbEntity
  8
035-DWG
100
AcDbLine
 10
-514.14656
 20
383.9
 30
0.0
 11
-513.169999
 21
383.9
 31
0.0
  0
LINE
  5
42
100
AcDbEntity
  8
025-DWG
100
AcDbLine
 10
-778.469332
 20
1123.286335
 30
0.0
 11
-932.819999
 21
1123.286335
 31
0.0
  0
LINE
  5
43
100
AcDbEntity
  8
035-DWG
100
AcDbLine
 10
-521.519999
 20
976.469091
 30
0.0
 11
-930.519999
 21
976.469091
 31
0.0
  0
LINE
  5
44
100
AcDbEntity
  8
035-DWG
100
AcDbLine
 10
-510.569999
 20
1155.6
 30
0.0
 11
-941.469999
 21
1155.6
 31
0.0
  0
LINE
  5
45
100
AcDbEntity
  8
035-DWG
100
AcDbLine
 10
-517.319999
 20
975.269091
 30
0.0
 11
-934.469999
 21
975.269091
 31
0.0
  0
LINE
  5
46
100
AcDbEntity
  8
035-DWG
100
AcDbLine
 10
-514.019999
 20
960.269091
 30
0.0
 11
-937.769999
 21
960.269091
 31
0.0
  0
LINE
  5
47
100
AcDbEntity
  8
025-DWG
100
AcDbLine
 10
-755.762456
 20
1128.286335
 30
0.0
 11
-932.819999
 21
1128.286335
 31
0.0
  0
LINE
  5
48
100
AcDbEntity
  8
035-DWG
100
AcDbLine
 10
-508.569999
 20
1147.6
 30
0.0
 11
-943.469999
 21
1147.6
 31
0.0
  0
LINE
  5
49
100
AcDbEntity
  8
035-DWG
100
AcDbLine
 10
-933.319999
 20
979.269091
 30
0.0
 11
-933.319999
 21
1120.521072
 31
0.0
  0
ARC
  5
4A
100
AcDbEntity
  8
035-DWG
100
AcDbCircle
 10
-934.469999
 20
971.969091
 30
0.0
 40
3.3
100
AcDbArc
 50
90.0
 51
180.0
  0
LINE
  5
4B
100
AcDbEntity
  8
035-DWG
100
AcDbLine
 10
-937.769999
 20
971.969091
 30
0.0
 11
-937.769999
 21
960.269091
 31
0.0
  0
ARC
  5
4C
100
AcDbEntity
  8
035-DWG
100
AcDbCircle
 10
-919.421219
 20
972.669091
 30
0.0
 40
3.8
100
AcDbArc
 50
90.0
 51
122.636898
  0
ARC
  5
4D
100
AcDbEntity
  8
035-DWG
100
AcDbCircle
 10
-927.61878
 20
972.669091
 30
0.0
 40
3.8
100
AcDbArc
 50
57.363102
 51
90.0
  0
ARC
  5
4E
100
AcDbEntity
  8
035-DWG
100
AcDbCircle
 10
-923.519999
 20
979.069091
 30
0.0
 40
3.8
100
AcDbArc
 50
237.363102
 51
302.636898
  0
ARC
  5
4F
100
AcDbEntity
  8
035-DWG
100
AcDbCircle
 10
-919.019999
 20
974.469091
 30
0.0
 40
2.0
100
AcDbArc
 50
23.578178
 51
90.0
  0
ARC
  5
50
100
AcDbEntity
  8
035-DWG
100
AcDbCircle
 10
-930.519999
 20
979.269091
 30
0.0
 40
2.8
100
AcDbArc
 50
180.0
 51
270.0
  0
LINE
  5
51
100
AcDbEntity
  8
035-DWG
100
AcDbLine
 10
-904.019999
 20
1155.6
 30
0.0
 11
-877.120001
 21
1182.499998
 31
0.0
  0
LINE
  5
52
100
AcDbEntity
  8
035-DWG
100
AcDbLine
 10
-933.319999
 20
1128.286335
 30
0.0
 11
-933.319999
 21
1147.6
 31
0.0
  0
LINE
  5
53
100
AcDbEntity
  8
035-DWG
100
AcDbLine
 10
-932.819999
 20
1123.286335
 30
0.0
 11
-933.319999
 21
1123.286335
 31
0.0
  0
LINE
  5
54
100
AcDbEntity
  8
035-DWG
100
AcDbLine
 10
-932.819999
 20
1128.286335
 30
0.0
 11
-933.319999
 21
1128.286335
 31
0.0
  0
LINE
  5
55
100
AcDbEntity
  8
035-DWG
100
AcDbLine
 10
-933.319999
 20
1120.521072
 30
0.0
 11
-933.319999
 21
1123.286335
 31
0.0
  0
ARC
  5
56
100
AcDbEntity
  8
035-DWG
100
AcDbCircle
 10
-932.819999
 20
1125.786335
 30
0.0
 40
2.5
100
AcDbArc
 50
270.0
 51
90.0
  0
ARC
  5
57
100
AcDbEntity
  8
035-DWG
100
AcDbCircle
 10
-941.469999
 20
1153.6
 30
0.0
 40
2.0
100
AcDbArc
 50
90.0
 51
180.0
  0
LINE
  5
58
100
AcDbEntity
  8
035-DWG
100
AcDbLine
 10
-943.469999
 20
1147.6
 30
0.0
 11
-943.469999
 21
1153.6
 31
0.0
  0
LWPOLYLINE
  5
59
100
AcDbEntity
  8
035-DWG
  6
CONTINUOUS
100
AcDbPolyline
 90
       19
 70
   128
 43
0.0
 10
-665.570677
 20
818.425578
 10
-671.854024
 20
817.233612
 10
-678.230912
 20
816.160301
 10
-684.687022
 20
815.211951
 10
-691.208037
 20
814.394869
 10
-697.973237
 20
813.696858
 10
-704.796452
 20
813.145237
 10
-711.659093
 20
812.743353
 10
-718.542573
 20
812.494551
 10
-725.296934
 20
812.401515
 10
-732.058944
 20
812.456995
 10
-738.810413
 20
812.660105
 10
-745.533146
 20
813.009961
 10
-752.41998
 20
813.522751
 10
-759.263874
 20
814.186579
 10
-766.046919
 20
814.996307
 10
-772.751205
 20
815.946796
 10
-779.819697
 20
817.112601
 10
-786.780993
 20
818.425578
  0
LINE
  5
5A
100
AcDbEntity
  8
025-DWG
  6
CONTINUOUS
100
AcDbLine
 10
-745.987575
 20
825.95113
 30
0.0
 11
-745.867468
 21
816.142859
 31
0.0
  0
LINE
  5
5B
100
AcDbEntity
  8
025-DWG
  6
CONTINUOUS
100
AcDbLine
 10
-745.202502
 20
816.16099
 30
0.0
 11
-745.322439
 21
825.955353
 31
0.0
  0
LINE
  5
5C
100
AcDbEntity
  8
025-DWG
  6
CONTINUOUS
100
AcDbLine
 10
-743.821509
 20
825.955353
 30
0.0
 11
-743.708446
 21
816.389994
 31
0.0
  0
LINE
  5
5D
100
AcDbEntity
  8
025-DWG
  6
CONTINUOUS
100
AcDbLine
 10
-743.001958
 20
816.398721
 30
0.0
 11
-743.115532
 21
825.959814
 31
0.0
  0
LINE
  5
5E
100
AcDbEntity
  8
025-DWG
  6
CONTINUOUS
100
AcDbLine
 10
-706.484202
 20
816.142859
 30
0.0
 11
-706.364095
 21
825.95113
 31
0.0
  0
LINE
  5
5F
100
AcDbEntity
  8
025-DWG
  6
CONTINUOUS
100
AcDbLine
 10
-707.029231
 20
825.955353
 30
0.0
 11
-707.149169
 21
816.16099
 31
0.0
  0
LINE
  5
60
100
AcDbEntity
  8
025-DWG
  6
CONTINUOUS
100
AcDbLine
 10
-708.643224
 20
816.389994
 30
0.0
 11
-708.530161
 21
825.955353
 31
0.0
  0
LINE
  5
61
100
AcDbEntity
  8
025-DWG
  6
CONTINUOUS
100
AcDbLine
 10
-709.236138
 20
825.959814
 30
0.0
 11
-709.349712
 21
816.398721
 31
0.0
  0
LWPOLYLINE
  5
62
100
AcDbEntity
  8
025-DWG
  6
CONTINUOUS
100
AcDbPolyline
 90
        3
 70
   128
 43
0.0
 10
-759.66967
 20
816.830624
 10
-758.126603
 20
816.40313
 10
-757.740616
 20
816.297844
  0
LWPOLYLINE
  5
63
100
AcDbEntity
  8
025-DWG
  6
CONTINUOUS
100
AcDbPolyline
 90
        9
 70
   128
 43
0.0
 10
-695.355711
 20
817.265285
 10
-695.312839
 20
817.082461
 10
-695.2498
 20
816.906407
 10
-695.168823
 20
816.743345
 10
-695.072769
 20
816.599038
 10
-694.965032
 20
816.478585
 10
-694.849422
 20
816.386245
 10
-694.730022
 20
816.325279
 10
-694.611054
 20
816.297844
  0
LWPOLYLINE
  5
64
100
AcDbEntity
  8
025-DWG
  6
CONTINUOUS
100
AcDbPolyline
 90
        3
 70
   128
 43
0.0
 10
-694.611054
 20
816.297844
 10
-693.06754
 20
816.722824
 10
-692.682
 20
816.830624
  0
LWPOLYLINE
  5
65
100
AcDbEntity
  8
025-DWG
  6
CONTINUOUS
100
AcDbPolyline
 90
        9
 70
   128
 43
0.0
 10
-696.090742
 20
817.008999
 10
-696.074798
 20
816.837984
 10
-696.06304
 20
816.672064
 10
-696.055818
 20
816.51618
 10
-696.053348
 20
816.374978
 10
-696.055703
 20
816.252663
 10
-696.062812
 20
816.152879
 10
-696.074465
 20
816.078599
 10
-696.090314
 20
816.032035
  0
LWPOLYLINE
  5
66
100
AcDbEntity
  8
025-DWG
  6
CONTINUOUS
100
AcDbPolyline
 90
        3
 70
   128
 43
0.0
 10
-696.090742
 20
817.008999
 10
-701.282081
 20
816.518337
 10
-706.484202
 20
816.142859
  0
LWPOLYLINE
  5
67
100
AcDbEntity
  8
025-DWG
  6
CONTINUOUS
100
AcDbPolyline
 90
        9
 70
   128
 43
0.0
 10
-757.740616
 20
816.297844
 10
-757.621648
 20
816.325279
 10
-757.502248
 20
816.386245
 10
-757.386638
 20
816.478585
 10
-757.278901
 20
816.599038
 10
-757.182847
 20
816.743345
 10
-757.10187
 20
816.906407
 10
-757.038831
 20
817.082461
 10
-756.995959
 20
817.265285
  0
LWPOLYLINE
  5
68
100
AcDbEntity
  8
025-DWG
  6
CONTINUOUS
100
AcDbPolyline
 90
        9
 70
   128
 43
0.0
 10
-756.261356
 20
816.032035
 10
-756.277205
 20
816.078599
 10
-756.288858
 20
816.152879
 10
-756.295967
 20
816.252663
 10
-756.298322
 20
816.374978
 10
-756.295852
 20
816.51618
 10
-756.28863
 20
816.672064
 10
-756.276872
 20
816.837984
 10
-756.260929
 20
817.008999
  0
LWPOLYLINE
  5
69
100
AcDbEntity
  8
025-DWG
  6
CONTINUOUS
100
AcDbPolyline
 90
        3
 70
   128
 43
0.0
 10
-745.867468
 20
816.142859
 10
-751.069589
 20
816.518337
 10
-756.260929
 20
817.008999
  0
LINE
  5
6A
100
AcDbEntity
  8
035-DWG
100
AcDbLine
 10
-496.873666
 20
572.083484
 30
0.0
 11
-446.543214
 21
558.660267
 31
0.0
  0
LINE
  5
6B
100
AcDbEntity
  8
035-DWG
100
AcDbLine
 10
-517.234184
 20
568.157246
 30
0.0
 11
-439.562378
 21
553.414852
 31
0.0
  0
LINE
  5
6C
100
AcDbEntity
  8
035-DWG
100
AcDbLine
 10
-517.234184
 20
542.657484
 30
0.0
 11
-439.562378
 21
542.657484
 31
0.0
  0
LINE
  5
6D
100
AcDbEntity
  8
035-DWG
100
AcDbLine
 10
-512.79499
 20
535.157484
 30
0.0
 11
-439.562378
 21
535.157484
 31
0.0
  0
LINE
  5
6E
100
AcDbEntity
  8
035-DWG
100
AcDbLine
 10
-517.234184
 20
577.513668
 30
0.0
 11
-517.234184
 21
535.157484
 31
0.0
  0
LWPOLYLINE
  5
6F
100
AcDbEntity
  8
035-DWG
100
AcDbPolyline
 90
       41
 70
     0
 43
0.0
 10
-512.669999
 20
533.2
 10
-512.670255
 20
533.203679
 10
-512.671025
 20
533.214782
 10
-512.672312
 20
533.233405
 10
-512.674118
 20
533.259644
 10
-512.676448
 20
533.293597
 10
-512.679302
 20
533.335361
 10
-512.682685
 20
533.385031
 10
-512.6866
 20
533.442705
 10
-512.691045
 20
533.50845
 10
-512.696007
 20
533.582223
 10
-512.70147
 20
533.663962
 10
-512.707418
 20
533.7536
 10
-512.713836
 20
533.851074
 10
-512.720708
 20
533.956319
 10
-512.728017
 20
534.069271
 10
-512.735748
 20
534.189865
 10
-512.743883
 20
534.318038
 10
-512.752395
 20
534.453636
 10
-512.761254
 20
534.59646
 10
-512.770433
 20
534.746306
 10
-512.779903
 20
534.902975
 10
-512.789634
 20
535.066264
 10
-512.799598
 20
535.235973
 10
-512.809767
 20
535.411901
 10
-512.820108
 20
535.593826
 10
-512.830586
 20
535.781437
 10
-512.841169
 20
535.974396
 10
-512.851824
 20
536.172366
 10
-512.862519
 20
536.37501
 10
-512.873219
 20
536.58199
 10
-512.883894
 20
536.79297
 10
-512.894509
 20
537.007612
 10
-512.903882
 20
537.201422
 10
-512.913305
 20
537.400568
 10
-512.922755
 20
537.604915
 10
-512.93221
 20
537.814329
 10
-512.941647
 20
538.028679
 10
-512.951044
 20
538.247829
 10
-512.960378
 20
538.471647
 10
-512.969627
 20
538.7
  0
LINE
  5
70
100
AcDbEntity
  8
035-DWG
100
AcDbLine
 10
-517.234184
 20
535.157484
 30
0.0
 11
-516.339341
 21
535.157484
 31
0.0
  0
LINE
  5
71
100
AcDbEntity
  8
035-DWG
100
AcDbLine
 10
-508.669999
 20
531.703681
 30
0.0
 11
-508.669999
 21
531.7
 31
0.0
  0
LINE
  5
72
100
AcDbEntity
  8
035-DWG
100
AcDbLine
 10
-508.669999
 20
531.703681
 30
0.0
 11
-508.669999
 21
532.203812
 31
0.0
  0
LINE
  5
73
100
AcDbEntity
  8
035-DWG
100
AcDbLine
 10
-508.669999
 20
532.203812
 30
0.0
 11
-508.669999
 21
533.129874
 31
0.0
  0
LINE
  5
74
100
AcDbEntity
  8
035-DWG
100
AcDbLine
 10
-512.669999
 20
533.2
 30
0.0
 11
-512.669999
 21
532.347531
 31
0.0
  0
LWPOLYLINE
  5
75
100
AcDbEntity
  8
035-DWG
100
AcDbPolyline
 90
        3
 70
     0
 43
0.0
 10
-512.670578
 20
531.567727
 10
-512.670283
 20
531.563952
 10
-512.669999
 20
531.560317
  0
LINE
  5
76
100
AcDbEntity
  8
035-DWG
100
AcDbLine
 10
-512.670577
 20
532.347552
 30
0.0
 11
-512.670577
 21
531.567728
 31
0.0
  0
LINE
  5
77
100
AcDbEntity
  8
035-DWG
100
AcDbLine
 10
-508.669999
 20
531.7
 30
0.0
 11
-512.669999
 21
531.560317
 31
0.0
  0
LWPOLYLINE
  5
78
100
AcDbEntity
  8
035-DWG
100
AcDbPolyline
 90
        3
 70
     0
 43
0.0
 10
-508.669999
 20
533.129874
 10
-510.678885
 20
533.220671
 10
-512.677654
 20
533.311342
  0
LWPOLYLINE
  5
79
100
AcDbEntity
  8
025-DWG
100
AcDbPolyline
 90
        3
 70
     0
 43
0.0
 10
-512.670577
 20
532.347552
 10
-510.67545
 20
532.275682
 10
-508.669999
 20
532.203812
  0
LINE
  5
7A
100
AcDbEntity
  8
035-DWG
100
AcDbLine
 10
-516.339341
 20
538.7
 30
0.0
 11
-514.085625
 21
538.7
 31
0.0
  0
LINE
  5
7B
100
AcDbEntity
  8
035-DWG
100
AcDbLine
 10
-506.580194
 20
568.137668
 30
0.0
 11
-517.234184
 21
570.099276
 31
0.0
  0
ARC
  5
7C
100
AcDbEntity
  8
035-DWG
100
AcDbCircle
 10
-496.827109
 20
581.145347
 30
0.0
 40
9.23749
100
AcDbArc
 50
250.475796
 51
272.958583
  0
ARC
  5
7D
100
AcDbEntity
  8
035-DWG
100
AcDbCircle
 10
-515.406136
 20
589.131182
 30
0.0
 40
22.773337
100
AcDbArc
 50
292.802506
 51
312.864037
  0
LINE
  5
7E
100
AcDbEntity
  8
035-DWG
100
AcDbLine
 10
-513.64916
 20
538.7
 30
0.0
 11
-514.085625
 21
538.7
 31
0.0
  0
LINE
  5
7F
100
AcDbEntity
  8
035-DWG
100
AcDbLine
 10
-512.969627
 20
538.7
 30
0.0
 11
-513.64916
 21
538.7
 31
0.0
  0
LWPOLYLINE
  5
80
100
AcDbEntity
  8
025-DWG
  6
CONTINUOUS
100
AcDbPolyline
 90
        6
 70
   128
 43
0.0
 10
-742.988746
 20
815.416363
 10
-735.313848
 20
815.081688
 10
-726.46246
 20
814.941625
 10
-721.904517
 20
814.972124
 10
-717.349725
 20
815.072278
 10
-709.362924
 20
815.416363
  0
LWPOLYLINE
  5
81
100
AcDbEntity
  8
025-DWG
  6
CONTINUOUS
100
AcDbPolyline
 90
        6
 70
   128
 43
0.0
 10
-709.349712
 20
816.398721
 10
-717.355778
 20
816.056029
 10
-725.843892
 20
815.926478
 10
-732.448629
 20
815.991954
 10
-739.043663
 20
816.202499
 10
-743.001958
 20
816.398721
  0
LWPOLYLINE
  5
82
100
AcDbEntity
  8
025-DWG
  6
CONTINUOUS
100
AcDbPolyline
 90
        7
 70
   128
 43
0.0
 10
-756.261356
 20
816.032035
 10
-756.595294
 20
816.072564
 10
-756.935193
 20
816.124504
 10
-757.252265
 20
816.183311
 10
-757.555995
 20
816.25054
 10
-757.649993
 20
816.273928
 10
-757.740616
 20
816.297844
  0
LWPOLYLINE
  5
83
100
AcDbEntity
  8
025-DWG
  6
CONTINUOUS
100
AcDbPolyline
 90
        6
 70
   128
 43
0.0
 10
-745.867468
 20
816.142859
 10
-745.716547
 20
816.126962
 10
-745.567486
 20
816.120545
 10
-745.432783
 20
816.124176
 10
-745.30861
 20
816.137859
 10
-745.202502
 20
816.16099
  0
LINE
  5
84
100
AcDbEntity
  8
025-DWG
  6
CONTINUOUS
100
AcDbLine
 10
-743.708446
 20
816.389994
 30
0.0
 11
-745.202502
 21
816.16099
 31
0.0
  0
LWPOLYLINE
  5
85
100
AcDbEntity
  8
025-DWG
  6
CONTINUOUS
100
AcDbPolyline
 90
        9
 70
   128
 43
0.0
 10
-743.708446
 20
816.389994
 10
-743.640923
 20
816.390869
 10
-743.56569
 20
816.391828
 10
-743.483548
 20
816.39286
 10
-743.395375
 20
816.393956
 10
-743.302113
 20
816.395102
 10
-743.204758
 20
816.396286
 10
-743.104349
 20
816.397497
 10
-743.001958
 20
816.398721
  0
LWPOLYLINE
  5
86
100
AcDbEntity
  8
025-DWG
  6
CONTINUOUS
100
AcDbPolyline
 90
        7
 70
   128
 43
0.0
 10
-744.48899
 20
815.187812
 10
-744.710152
 20
815.1626
 10
-744.975987
 20
815.147092
 10
-745.264268
 20
815.142712
 10
-745.583226
 20
815.149422
 10
-745.703012
 20
815.15466
 10
-745.824569
 20
815.161392
  0
LWPOLYLINE
  5
87
100
AcDbEntity
  8
025-DWG
  6
CONTINUOUS
100
AcDbPolyline
 90
        3
 70
   128
 43
0.0
 10
-744.48899
 20
815.187812
 10
-743.265418
 20
815.373503
 10
-742.988746
 20
815.416363
  0
LWPOLYLINE
  5
88
100
AcDbEntity
  8
025-DWG
  6
CONTINUOUS
100
AcDbPolyline
 90
        9
 70
   128
 43
0.0
 10
-745.202502
 20
816.16099
 10
-745.179588
 20
815.988388
 10
-745.133425
 20
815.821285
 10
-745.065413
 20
815.664746
 10
-744.977614
 20
815.523519
 10
-744.872691
 20
815.401887
 10
-744.753824
 20
815.303536
 10
-744.624617
 20
815.231449
 10
-744.48899
 20
815.187812
  0
LWPOLYLINE
  5
89
100
AcDbEntity
  8
025-DWG
  6
CONTINUOUS
100
AcDbPolyline
 90
        9
 70
   128
 43
0.0
 10
-743.708446
 20
816.389994
 10
-743.685003
 20
816.216851
 10
-743.638164
 20
816.049261
 10
-743.569357
 20
815.892343
 10
-743.480685
 20
815.750887
 10
-743.374854
 20
815.629214
 10
-743.255098
 20
815.531038
 10
-743.125071
 20
815.459358
 10
-742.988746
 20
815.416363
  0
LWPOLYLINE
  5
8A
100
AcDbEntity
  8
025-DWG
  6
CONTINUOUS
100
AcDbPolyline
 90
        9
 70
   128
 43
0.0
 10
-742.988746
 20
815.416363
 10
-743.000118
 20
815.462041
 10
-743.009038
 20
815.535973
 10
-743.015234
 20
815.635929
 10
-743.018522
 20
815.758894
 10
-743.018802
 20
815.901159
 10
-743.016064
 20
816.058433
 10
-743.010393
 20
816.225971
 10
-743.001958
 20
816.398721
  0
LWPOLYLINE
  5
8B
100
AcDbEntity
  8
025-DWG
  6
CONTINUOUS
100
AcDbPolyline
 90
        9
 70
   128
 43
0.0
 10
-745.867468
 20
816.142859
 10
-745.875951
 20
815.970594
 10
-745.880441
 20
815.803498
 10
-745.880803
 20
815.646587
 10
-745.877027
 20
815.504568
 10
-745.869225
 20
815.381704
 10
-745.857632
 20
815.281681
 10
-745.842597
 20
815.207502
 10
-745.824569
 20
815.161392
  0
LWPOLYLINE
  5
8C
100
AcDbEntity
  8
025-DWG
  6
CONTINUOUS
100
AcDbPolyline
 90
        3
 70
   128
 43
0.0
 10
-756.261356
 20
816.032035
 10
-754.286802
 20
815.831509
 10
-745.824569
 20
815.161392
  0
LWPOLYLINE
  5
8D
100
AcDbEntity
  8
025-DWG
  6
CONTINUOUS
100
AcDbPolyline
 90
        6
 70
   128
 43
0.0
 10
-707.149169
 20
816.16099
 10
-707.045671
 20
816.138281
 10
-706.92126
 20
816.124334
 10
-706.785971
 20
816.12053
 10
-706.635947
 20
816.1269
 10
-706.484202
 20
816.142859
  0
LINE
  5
8E
100
AcDbEntity
  8
025-DWG
  6
CONTINUOUS
100
AcDbLine
 10
-707.149169
 20
816.16099
 30
0.0
 11
-708.643224
 21
816.389994
 31
0.0
  0
LWPOLYLINE
  5
8F
100
AcDbEntity
  8
025-DWG
  6
CONTINUOUS
100
AcDbPolyline
 90
        9
 70
   128
 43
0.0
 10
-709.349712
 20
816.398721
 10
-709.247322
 20
816.397497
 10
-709.146912
 20
816.396286
 10
-709.049557
 20
816.395102
 10
-708.956295
 20
816.393956
 10
-708.868122
 20
816.39286
 10
-708.785981
 20
816.391828
 10
-708.710747
 20
816.390869
 10
-708.643224
 20
816.389994
  0
LWPOLYLINE
  5
90
100
AcDbEntity
  8
025-DWG
  6
CONTINUOUS
100
AcDbPolyline
 90
        3
 70
   128
 43
0.0
 10
-709.362924
 20
815.416363
 10
-708.139442
 20
815.229264
 10
-707.86268
 20
815.187812
  0
LWPOLYLINE
  5
91
100
AcDbEntity
  8
025-DWG
  6
CONTINUOUS
100
AcDbPolyline
 90
        7
 70
   128
 43
0.0
 10
-706.527101
 20
815.161392
 10
-706.84797
 20
815.146735
 10
-707.162564
 20
815.142806
 10
-707.44449
 20
815.149898
 10
-707.701781
 20
815.168121
 10
-707.784894
 20
815.177289
 10
-707.86268
 20
815.187812
  0
LWPOLYLINE
  5
92
100
AcDbEntity
  8
025-DWG
  6
CONTINUOUS
100
AcDbPolyline
 90
        9
 70
   128
 43
0.0
 10
-706.527101
 20
815.161392
 10
-706.509074
 20
815.207502
 10
-706.494038
 20
815.281681
 10
-706.482445
 20
815.381704
 10
-706.474643
 20
815.504568
 10
-706.470867
 20
815.646587
 10
-706.471229
 20
815.803498
 10
-706.475719
 20
815.970594
 10
-706.484202
 20
816.142859
  0
LWPOLYLINE
  5
93
100
AcDbEntity
  8
025-DWG
  6
CONTINUOUS
100
AcDbPolyline
 90
        9
 70
   128
 43
0.0
 10
-707.86268
 20
815.187812
 10
-707.727053
 20
815.231449
 10
-707.597847
 20
815.303536
 10
-707.47898
 20
815.401887
 10
-707.374056
 20
815.523519
 10
-707.286257
 20
815.664746
 10
-707.218245
 20
815.821285
 10
-707.172082
 20
815.988388
 10
-707.149169
 20
816.16099
  0
LWPOLYLINE
  5
94
100
AcDbEntity
  8
025-DWG
  6
CONTINUOUS
100
AcDbPolyline
 90
        9
 70
   128
 43
0.0
 10
-709.362924
 20
815.416363
 10
-709.226599
 20
815.459358
 10
-709.096572
 20
815.531038
 10
-708.976816
 20
815.629214
 10
-708.870985
 20
815.750887
 10
-708.782313
 20
815.892343
 10
-708.713506
 20
816.049261
 10
-708.666667
 20
816.216851
 10
-708.643224
 20
816.389994
  0
LWPOLYLINE
  5
95
100
AcDbEntity
  8
025-DWG
  6
CONTINUOUS
100
AcDbPolyline
 90
        9
 70
   128
 43
0.0
 10
-709.349712
 20
816.398721
 10
-709.341278
 20
816.225971
 10
-709.335606
 20
816.058433
 10
-709.332869
 20
815.901159
 10
-709.333148
 20
815.758894
 10
-709.336436
 20
815.635929
 10
-709.342633
 20
815.535973
 10
-709.351552
 20
815.462041
 10
-709.362924
 20
815.416363
  0
LWPOLYLINE
  5
96
100
AcDbEntity
  8
025-DWG
  6
CONTINUOUS
100
AcDbPolyline
 90
        7
 70
   128
 43
0.0
 10
-694.611054
 20
816.297844
 10
-694.892067
 20
816.227904
 10
-695.209828
 20
816.161619
 10
-695.538172
 20
816.104645
 10
-695.88667
 20
816.055521
 10
-695.988491
 20
816.043296
 10
-696.090314
 20
816.032035
  0
LWPOLYLINE
  5
97
100
AcDbEntity
  8
025-DWG
  6
CONTINUOUS
100
AcDbPolyline
 90
        3
 70
   128
 43
0.0
 10
-706.527101
 20
815.161392
 10
-704.546702
 20
815.290802
 10
-696.090314
 20
816.032035
  0
LINE
  5
98
100
AcDbEntity
  8
035-DWG
100
AcDbLine
 10
-439.562378
 20
535.157484
 30
0.0
 11
-439.562378
 21
553.414852
 31
0.0
  0
LINE
  5
99
100
AcDbEntity
  8
035-DWG
100
AcDbLine
 10
-407.9324
 20
559.157484
 30
0.0
 11
-407.025679
 21
533.192383
 31
0.0
  0
LINE
  5
9A
100
AcDbEntity
  8
035-DWG
100
AcDbLine
 10
-427.2524
 20
510.157484
 30
0.0
 11
-434.2524
 21
510.157484
 31
0.0
  0
LINE
  5
9B
100
AcDbEntity
  8
025-DWG
100
AcDbLine
 10
-426.340841
 20
530.157484
 30
0.0
 11
-435.2524
 21
530.157484
 31
0.0
  0
LINE
  5
9C
100
AcDbEntity
  8
035-DWG
100
AcDbLine
 10
-437.2524
 20
532.157484
 30
0.0
 11
-417.2524
 21
532.157484
 31
0.0
  0
LINE
  5
9D
100
AcDbEntity
  8
035-DWG
100
AcDbLine
 10
-419.2524
 20
516.157484
 30
0.0
 11
-435.2524
 21
516.157484
 31
0.0
  0
LINE
  5
9E
100
AcDbEntity
  8
025-DWG
100
AcDbLine
 10
-419.2524
 20
511.157484
 30
0.0
 11
-435.2524
 21
511.157484
 31
0.0
  0
LINE
  5
9F
100
AcDbEntity
  8
035-DWG
100
AcDbLine
 10
-419.2524
 20
513.157484
 30
0.0
 11
-435.2524
 21
513.157484
 31
0.0
  0
LINE
  5
A0
100
AcDbEntity
  8
035-DWG
100
AcDbLine
 10
-445.316254
 20
532.157484
 30
0.0
 11
-437.2524
 21
532.157484
 31
0.0
  0
LINE
  5
A1
100
AcDbEntity
  8
035-DWG
100
AcDbLine
 10
-440.3149
 20
535.157484
 30
0.0
 11
-440.3149
 21
532.157484
 31
0.0
  0
LINE
  5
A2
100
AcDbEntity
  8
035-DWG
100
AcDbLine
 10
-440.3149
 20
532.157484
 30
0.0
 11
-441.521959
 21
535.157484
 31
0.0
  0
LINE
  5
A3
100
AcDbEntity
  8
035-DWG
100
AcDbLine
 10
-435.2524
 20
516.157484
 30
0.0
 11
-435.2524
 21
530.157484
 31
0.0
  0
ARC
  5
A4
100
AcDbEntity
  8
035-DWG
100
AcDbCircle
 10
-437.2524
 20
530.157484
 30
0.0
 40
2.0
100
AcDbArc
 50
0.0
 51
90.0
  0
LINE
  5
A5
100
AcDbEntity
  8
035-DWG
100
AcDbLine
 10
-435.2524
 20
511.157484
 30
0.0
 11
-435.2524
 21
513.157484
 31
0.0
  0
ARC
  5
A6
100
AcDbEntity
  8
035-DWG
100
AcDbCircle
 10
-434.2524
 20
511.157484
 30
0.0
 40
1.0
100
AcDbArc
 50
180.0
 51
270.0
  0
ARC
  5
A7
100
AcDbEntity
  8
035-DWG
100
AcDbCircle
 10
-437.2524
 20
514.657484
 30
0.0
 40
2.5
100
AcDbArc
 50
323.130102
 51
36.869898
  0
LINE
  5
A8
100
AcDbEntity
  8
035-DWG
100
AcDbLine
 10
-446.301062
 20
532.983836
 30
0.0
 11
-446.684335
 21
535.157484
 31
0.0
  0
ARC
  5
A9
100
AcDbEntity
  8
035-DWG
100
AcDbCircle
 10
-445.316254
 20
533.157484
 30
0.0
 40
1.0
100
AcDbArc
 50
190.0
 51
270.0
  0
ARC
  5
AA
100
AcDbEntity
  8
035-DWG
100
AcDbCircle
 10
-417.2524
 20
530.157484
 30
0.0
 40
2.0
100
AcDbArc
 50
90.0
 51
180.0
  0
ARC
  5
AB
100
AcDbEntity
  8
035-DWG
100
AcDbCircle
 10
-408.02507
 20
533.157484
 30
0.0
 40
1.0
100
AcDbArc
 50
270.0
 51
2.0
  0
LINE
  5
AC
100
AcDbEntity
  8
035-DWG
100
AcDbLine
 10
-417.2524
 20
532.157484
 30
0.0
 11
-408.02507
 21
532.157484
 31
0.0
  0
LINE
  5
AD
100
AcDbEntity
  8
035-DWG
100
AcDbLine
 10
-419.2524
 20
516.157484
 30
0.0
 11
-419.2524
 21
530.157484
 31
0.0
  0
LINE
  5
AE
100
AcDbEntity
  8
025-DWG
100
AcDbLine
 10
-419.2524
 20
530.157484
 30
0.0
 11
-422.117611
 21
530.157484
 31
0.0
  0
LINE
  5
AF
100
AcDbEntity
  8
035-DWG
100
AcDbLine
 10
-419.2524
 20
511.157484
 30
0.0
 11
-419.2524
 21
513.157484
 31
0.0
  0
ARC
  5
B0
100
AcDbEntity
  8
035-DWG
100
AcDbCircle
 10
-420.2524
 20
511.157484
 30
0.0
 40
1.0
100
AcDbArc
 50
270.0
 51
0.0
  0
ARC
  5
B1
100
AcDbEntity
  8
035-DWG
100
AcDbCircle
 10
-417.2524
 20
514.657484
 30
0.0
 40
2.5
100
AcDbArc
 50
143.130102
 51
216.869898
  0
LINE
  5
B2
100
AcDbEntity
  8
035-DWG
100
AcDbLine
 10
-420.2524
 20
510.157484
 30
0.0
 11
-427.2524
 21
510.157484
 31
0.0
  0
ARC
  5
B3
100
AcDbEntity
  8
035-DWG
100
AcDbCircle
 10
-413.832125
 20
618.635868
 30
0.0
 40
24.0
100
AcDbArc
 50
281.59778
 51
353.403307
  0
ARC
  5
B4
100
AcDbEntity
  8
035-DWG
100
AcDbCircle
 10
-387.010881
 20
615.534113
 30
0.0
 40
3.0
100
AcDbArc
 50
77.583577
 51
173.403307
  0
ARC
  5
B5
100
AcDbEntity
  8
025-DWG
100
AcDbCircle
 10
-387.010881
 20
615.534113
 30
0.0
 40
3.3
100
AcDbArc
 50
102.203554
 51
173.403307
  0
ARC
  5
B6
100
AcDbEntity
  8
035-DWG
100
AcDbCircle
 10
-389.359615
 20
614.003322
 30
0.0
 40
5.0
100
AcDbArc
 50
77.583577
 51
168.209256
  0
ARC
  5
B7
100
AcDbEntity
  8
035-DWG
100
AcDbCircle
 10
-415.609194
 20
625.926252
 30
0.0
 40
31.5
100
AcDbArc
 50
278.393845
 51
344.810118
  0
LINE
  5
B8
100
AcDbEntity
  8
035-DWG
100
AcDbLine
 10
-438.7524
 20
582.957484
 30
0.0
 11
-438.7524
 21
585.957484
 31
0.0
  0
LINE
  5
B9
100
AcDbEntity
  8
035-DWG
100
AcDbLine
 10
-438.7524
 20
573.957484
 30
0.0
 11
-438.7524
 21
585.957484
 31
0.0
  0
LINE
  5
BA
100
AcDbEntity
  8
035-DWG
100
AcDbLine
 10
-416.59563
 20
583.761048
 30
0.0
 11
-420.02814
 21
591.12209
 31
0.0
  0
ARC
  5
BB
100
AcDbEntity
  8
035-DWG
100
AcDbCircle
 10
-417.5024
 20
582.157935
 30
0.0
 40
12.0
100
AcDbArc
 50
113.589161
 51
180.0
  0
ARC
  5
BC
100
AcDbEntity
  8
035-DWG
100
AcDbCircle
 10
-413.5024
 20
582.42911
 30
0.0
 40
16.0
100
AcDbArc
 50
96.057169
 51
180.971119
  0
LINE
  5
BD
100
AcDbEntity
  8
025-DWG
100
AcDbLine
 10
-431.977508
 20
561.457484
 30
0.0
 11
-429.633732
 21
561.457484
 31
0.0
  0
LINE
  5
BE
100
AcDbEntity
  8
035-DWG
100
AcDbLine
 10
-435.7524
 20
570.957484
 30
0.0
 11
-424.7524
 21
570.957484
 31
0.0
  0
LINE
  5
BF
100
AcDbEntity
  8
035-DWG
100
AcDbLine
 10
-445.496386
 20
570.957484
 30
0.0
 11
-409.008414
 21
570.957484
 31
0.0
  0
LINE
  5
C0
100
AcDbEntity
  8
035-DWG
100
AcDbLine
 10
-446.5524
 20
559.457484
 30
0.0
 11
-407.9524
 21
559.457484
 31
0.0
  0
LINE
  5
C1
100
AcDbEntity
  8
035-DWG
100
AcDbLine
 10
-446.5349
 20
559.157484
 30
0.0
 11
-407.9324
 21
559.157484
 31
0.0
  0
POLYLINE
  5
C2
100
AcDbEntity
  8
035-DWG
100
AcDb2dPolyline
 66
     1
 10
0.0
 20
0.0
 30
0.0
 70
     2
  0
VERTEX
  5
C3
100
AcDbEntity
  8
035-DWG
100
AcDbVertex
100
AcDb2dVertex
 10
-446.543214
 20
558.660267
 30
0.0
 42
0.015758
  0
VERTEX
  5
C4
100
AcDbEntity
  8
035-DWG
100
AcDbVertex
100
AcDb2dVertex
 10
-445.101078
 20
557.30978
 30
0.0
 42
0.015758
 70
     1
  0
VERTEX
  5
C5
100
AcDbEntity
  8
035-DWG
100
AcDbVertex
100
AcDb2dVertex
 10
-443.576744
 20
556.052809
 30
0.0
 42
0.019172
  0
VERTEX
  5
C6
100
AcDbEntity
  8
035-DWG
100
AcDbVertex
100
AcDb2dVertex
 10
-441.620155
 20
554.656837
 30
0.0
 42
0.019172
 70
     1
  0
VERTEX
  5
C7
100
AcDbEntity
  8
035-DWG
100
AcDbVertex
100
AcDb2dVertex
 10
-439.562378
 20
553.414852
 30
0.0
  0
SEQEND
  5
C8
100
AcDbEntity
  8
035-DWG
  0
ARC
  5
C9
100
AcDbEntity
  8
035-DWG
100
AcDbCircle
 10
-435.7524
 20
573.957484
 30
0.0
 40
3.0
100
AcDbArc
 50
180.0
 51
270.0
  0
ARC
  5
CA
100
AcDbEntity
  8
035-DWG
100
AcDbCircle
 10
-442.794631
 20
570.457484
 30
0.0
 40
0.5
100
AcDbArc
 50
90.0
 51
180.0
  0
ARC
  5
CB
100
AcDbEntity
  8
035-DWG
100
AcDbCircle
 10
-439.958795
 20
570.657484
 30
0.0
 40
0.3
100
AcDbArc
 50
90.0
 51
180.0
  0
LINE
  5
CC
100
AcDbEntity
  8
025-DWG
100
AcDbLine
 10
-440.258795
 20
561.457484
 30
0.0
 11
-438.42032
 21
561.457484
 31
0.0
  0
LINE
  5
CD
100
AcDbEntity
  8
025-DWG
100
AcDbLine
 10
-441.892152
 20
561.457484
 30
0.0
 11
-443.294631
 21
561.457484
 31
0.0
  0
LINE
  5
CE
100
AcDbEntity
  8
025-DWG
100
AcDbLine
 10
-442.495745
 20
570.957484
 30
0.0
 11
-443.294631
 21
561.457484
 31
0.0
  0
LINE
  5
CF
100
AcDbEntity
  8
025-DWG
100
AcDbLine
 10
-443.294631
 20
570.457484
 30
0.0
 11
-443.294631
 21
561.457484
 31
0.0
  0
LINE
  5
D0
100
AcDbEntity
  8
025-DWG
100
AcDbLine
 10
-441.892152
 20
570.957484
 30
0.0
 11
-441.892152
 21
561.457484
 31
0.0
  0
LINE
  5
D1
100
AcDbEntity
  8
025-DWG
100
AcDbLine
 10
-440.258795
 20
561.457484
 30
0.0
 11
-439.531662
 21
570.957484
 31
0.0
  0
LINE
  5
D2
100
AcDbEntity
  8
025-DWG
100
AcDbLine
 10
-440.258795
 20
570.657484
 30
0.0
 11
-440.258795
 21
561.457484
 31
0.0
  0
LINE
  5
D3
100
AcDbEntity
  8
025-DWG
100
AcDbLine
 10
-438.42032
 20
570.957484
 30
0.0
 11
-438.42032
 21
561.457484
 31
0.0
  0
ARC
  5
D4
100
AcDbEntity
  8
035-DWG
100
AcDbCircle
 10
-436.10572
 20
570.657484
 30
0.0
 40
0.3
100
AcDbArc
 50
90.0
 51
180.0
  0
ARC
  5
D5
100
AcDbEntity
  8
035-DWG
100
AcDbCircle
 10
-431.777508
 20
570.757484
 30
0.0
 40
0.2
100
AcDbArc
 50
90.0
 51
180.0
  0
LINE
  5
D6
100
AcDbEntity
  8
025-DWG
100
AcDbLine
 10
-436.40572
 20
561.457484
 30
0.0
 11
-434.246767
 21
561.457484
 31
0.0
  0
LINE
  5
D7
100
AcDbEntity
  8
025-DWG
100
AcDbLine
 10
-431.977508
 20
561.457484
 30
0.0
 11
-431.55144
 21
570.957484
 31
0.0
  0
LINE
  5
D8
100
AcDbEntity
  8
025-DWG
100
AcDbLine
 10
-431.977508
 20
570.757484
 30
0.0
 11
-431.977508
 21
561.457484
 31
0.0
  0
LINE
  5
D9
100
AcDbEntity
  8
025-DWG
100
AcDbLine
 10
-435.731556
 20
570.957484
 30
0.0
 11
-436.40572
 21
561.457484
 31
0.0
  0
LINE
  5
DA
100
AcDbEntity
  8
025-DWG
100
AcDbLine
 10
-436.40572
 20
570.657484
 30
0.0
 11
-436.40572
 21
561.457484
 31
0.0
  0
LINE
  5
DB
100
AcDbEntity
  8
025-DWG
100
AcDbLine
 10
-434.246767
 20
570.957484
 30
0.0
 11
-434.246767
 21
561.457484
 31
0.0
  0
LINE
  5
DC
100
AcDbEntity
  8
035-DWG
100
AcDbLine
 10
-446.5524
 20
559.6
 30
0.0
 11
-450.066751
 21
559.6
 31
0.0
  0
ARC
  5
DD
100
AcDbEntity
  8
035-DWG
100
AcDbCircle
 10
-444.722474
 20
570.357484
 30
0.0
 40
0.6
100
AcDbArc
 50
90.0
 51
180.0
  0
ARC
  5
DE
100
AcDbEntity
  8
035-DWG
100
AcDbCircle
 10
-445.496386
 20
570.207484
 30
0.0
 40
0.75
100
AcDbArc
 50
90.0
 51
178.0
  0
LINE
  5
DF
100
AcDbEntity
  8
035-DWG
100
AcDbLine
 10
-446.5524
 20
561.457484
 30
0.0
 11
-446.5524
 21
559.457484
 31
0.0
  0
LINE
  5
E0
100
AcDbEntity
  8
025-DWG
100
AcDbLine
 10
-444.444114
 20
561.457484
 30
0.0
 11
-445.322474
 21
561.457484
 31
0.0
  0
LINE
  5
E1
100
AcDbEntity
  8
025-DWG
100
AcDbLine
 10
-445.839837
 20
561.523422
 30
0.0
 11
-446.550098
 21
561.523422
 31
0.0
  0
LINE
  5
E2
100
AcDbEntity
  8
025-DWG
100
AcDbLine
 10
-444.444114
 20
570.957484
 30
0.0
 11
-444.444114
 21
561.457484
 31
0.0
  0
LINE
  5
E3
100
AcDbEntity
  8
025-DWG
100
AcDbLine
 10
-445.322474
 20
570.357484
 30
0.0
 11
-445.322474
 21
561.457484
 31
0.0
  0
LINE
  5
E4
100
AcDbEntity
  8
025-DWG
100
AcDbLine
 10
-445.839837
 20
570.874224
 30
0.0
 11
-445.839837
 21
561.523422
 31
0.0
  0
LINE
  5
E5
100
AcDbEntity
  8
035-DWG
100
AcDbLine
 10
-446.5524
 20
561.457484
 30
0.0
 11
-446.24593
 21
570.233659
 31
0.0
  0
LINE
  5
E6
100
AcDbEntity
  8
035-DWG
100
AcDbLine
 10
-446.5349
 20
559.157484
 30
0.0
 11
-446.535495
 21
558.65257
 31
0.0
  0
LINE
  5
E7
100
AcDbEntity
  8
035-DWG
100
AcDbLine
 10
-444.5524
 20
559.157484
 30
0.0
 11
-444.5524
 21
559.457484
 31
0.0
  0
LINE
  5
E8
100
AcDbEntity
  8
025-DWG
100
AcDbLine
 10
-424.871069
 20
561.457484
 30
0.0
 11
-425.129347
 21
570.957484
 31
0.0
  0
LINE
  5
E9
100
AcDbEntity
  8
025-DWG
100
AcDbLine
 10
-424.871069
 20
570.957484
 30
0.0
 11
-424.871069
 21
561.457484
 31
0.0
  0
ARC
  5
EA
100
AcDbEntity
  8
035-DWG
100
AcDbCircle
 10
-422.926768
 20
570.757484
 30
0.0
 40
0.2
100
AcDbArc
 50
1.228466
 51
90.0
  0
ARC
  5
EB
100
AcDbEntity
  8
035-DWG
100
AcDbCircle
 10
-418.299081
 20
570.757484
 30
0.0
 40
0.2
100
AcDbArc
 50
360.0
 51
90.0
  0
ARC
  5
EC
100
AcDbEntity
  8
035-DWG
100
AcDbCircle
 10
-420.458034
 20
570.757484
 30
0.0
 40
0.2
100
AcDbArc
 50
360.0
 51
90.0
  0
ARC
  5
ED
100
AcDbEntity
  8
035-DWG
100
AcDbCircle
 10
-414.646005
 20
570.557484
 30
0.0
 40
0.4
100
AcDbArc
 50
0.0
 51
90.0
  0
ARC
  5
EE
100
AcDbEntity
  8
035-DWG
100
AcDbCircle
 10
-416.284481
 20
570.757484
 30
0.0
 40
0.2
100
AcDbArc
 50
0.0
 51
90.0
  0
ARC
  5
EF
100
AcDbEntity
  8
035-DWG
100
AcDbCircle
 10
-410.560686
 20
570.457484
 30
0.0
 40
0.5
100
AcDbArc
 50
0.0
 51
90.0
  0
ARC
  5
F0
100
AcDbEntity
  8
035-DWG
100
AcDbCircle
 10
-413.012649
 20
570.557484
 30
0.0
 40
0.4
100
AcDbArc
 50
360.0
 51
90.0
  0
ARC
  5
F1
100
AcDbEntity
  8
035-DWG
100
AcDbCircle
 10
-409.008414
 20
570.207484
 30
0.0
 40
0.75
100
AcDbArc
 50
2.0
 51
90.0
  0
LINE
  5
F2
100
AcDbEntity
  8
035-DWG
100
AcDbLine
 10
-409.308414
 20
570.957484
 30
0.0
 11
-409.308871
 21
570.957484
 31
0.0
  0
LINE
  5
F3
100
AcDbEntity
  8
025-DWG
100
AcDbLine
 10
-416.084481
 20
561.457484
 30
0.0
 11
-418.099081
 21
561.457484
 31
0.0
  0
LINE
  5
F4
100
AcDbEntity
  8
025-DWG
100
AcDbLine
 10
-410.060686
 20
561.457484
 30
0.0
 11
-411.21017
 21
561.457484
 31
0.0
  0
LINE
  5
F5
100
AcDbEntity
  8
025-DWG
100
AcDbLine
 10
-408.588943
 20
561.457484
 30
0.0
 11
-409.182327
 21
561.457484
 31
0.0
  0
LINE
  5
F6
100
AcDbEntity
  8
035-DWG
100
AcDbLine
 10
-407.9524
 20
561.457484
 30
0.0
 11
-407.9524
 21
559.457484
 31
0.0
  0
LINE
  5
F7
100
AcDbEntity
  8
025-DWG
100
AcDbLine
 10
-412.612649
 20
561.457484
 30
0.0
 11
-414.246005
 21
561.457484
 31
0.0
  0
LINE
  5
F8
100
AcDbEntity
  8
025-DWG
100
AcDbLine
 10
-420.258034
 20
561.457484
 30
0.0
 11
-422.527292
 21
561.457484
 31
0.0
  0
LINE
  5
F9
100
AcDbEntity
  8
025-DWG
100
AcDbLine
 10
-409.182327
 20
570.946809
 30
0.0
 11
-409.182327
 21
561.457484
 31
0.0
  0
LINE
  5
FA
100
AcDbEntity
  8
025-DWG
100
AcDbLine
 10
-408.588943
 20
570.82921
 30
0.0
 11
-408.588943
 21
561.457484
 31
0.0
  0
LINE
  5
FB
100
AcDbEntity
  8
025-DWG
100
AcDbLine
 10
-410.060686
 20
561.457484
 30
0.0
 11
-410.802864
 21
570.957484
 31
0.0
  0
LINE
  5
FC
100
AcDbEntity
  8
025-DWG
100
AcDbLine
 10
-410.060686
 20
570.457484
 30
0.0
 11
-410.060686
 21
561.457484
 31
0.0
  0
LINE
  5
FD
100
AcDbEntity
  8
035-DWG
100
AcDbLine
 10
-407.9524
 20
561.457484
 30
0.0
 11
-408.258871
 21
570.233659
 31
0.0
  0
LINE
  5
FE
100
AcDbEntity
  8
025-DWG
100
AcDbLine
 10
-411.21017
 20
570.957484
 30
0.0
 11
-411.21017
 21
561.457484
 31
0.0
  0
LINE
  5
FF
100
AcDbEntity
  8
025-DWG
100
AcDbLine
 10
-412.612649
 20
561.457484
 30
0.0
 11
-413.305554
 21
570.957484
 31
0.0
  0
LINE
  5
100
100
AcDbEntity
  8
025-DWG
100
AcDbLine
 10
-414.246005
 20
570.557484
 30
0.0
 11
-414.246005
 21
561.457484
 31
0.0
  0
LINE
  5
101
100
AcDbEntity
  8
025-DWG
100
AcDbLine
 10
-412.612649
 20
570.557484
 30
0.0
 11
-412.612649
 21
561.457484
 31
0.0
  0
LINE
  5
102
100
AcDbEntity
  8
025-DWG
100
AcDbLine
 10
-416.084481
 20
561.457484
 30
0.0
 11
-416.683463
 21
570.957484
 31
0.0
  0
LINE
  5
103
100
AcDbEntity
  8
025-DWG
100
AcDbLine
 10
-418.099081
 20
570.757484
 30
0.0
 11
-418.099081
 21
561.457484
 31
0.0
  0
LINE
  5
104
100
AcDbEntity
  8
025-DWG
100
AcDbLine
 10
-416.084481
 20
570.757484
 30
0.0
 11
-416.084481
 21
561.457484
 31
0.0
  0
LINE
  5
105
100
AcDbEntity
  8
025-DWG
100
AcDbLine
 10
-420.258034
 20
570.757484
 30
0.0
 11
-420.258034
 21
561.457484
 31
0.0
  0
LINE
  5
106
100
AcDbEntity
  8
025-DWG
100
AcDbLine
 10
-422.726814
 20
570.761772
 30
0.0
 11
-422.527292
 21
561.457484
 31
0.0
  0
LINE
  5
107
100
AcDbEntity
  8
025-DWG
100
AcDbLine
 10
-422.527292
 20
570.957484
 30
0.0
 11
-422.527292
 21
561.457484
 31
0.0
  0
LINE
  5
108
100
AcDbEntity
  8
035-DWG
100
AcDbLine
 10
-409.9524
 20
559.157484
 30
0.0
 11
-409.9524
 21
559.457484
 31
0.0
  0
ARC
  5
109
100
AcDbEntity
  8
035-DWG
100
AcDbCircle
 10
-424.7524
 20
574.457484
 30
0.0
 40
3.5
100
AcDbArc
 50
270.0
 51
90.0
  0
ARC
  5
10A
100
AcDbEntity
  8
035-DWG
100
AcDbCircle
 10
-424.7524
 20
579.957484
 30
0.0
 40
9.0
100
AcDbArc
 50
270.0
 51
25.0
  0
LINE
  5
10B
100
AcDbEntity
  8
035-DWG
100
AcDbLine
 10
-429.5024
 20
579.957484
 30
0.0
 11
-429.5024
 21
582.157935
 31
0.0
  0
ARC
  5
10C
100
AcDbEntity
  8
035-DWG
100
AcDbCircle
 10
-427.5024
 20
579.957484
 30
0.0
 40
2.0
100
AcDbArc
 50
180.0
 51
270.0
  0
LINE
  5
10D
100
AcDbEntity
  8
025-DWG
100
AcDbLine
 10
-429.633732
 20
570.957484
 30
0.0
 11
-429.633732
 21
561.457484
 31
0.0
  0
LINE
  5
10E
100
AcDbEntity
  8
025-DWG
100
AcDbLine
 10
-427.2524
 20
570.957484
 30
0.0
 11
-427.2524
 21
561.457484
 31
0.0
  0
LINE
  5
10F
100
AcDbEntity
  8
035-DWG
100
AcDbLine
 10
-424.7524
 20
577.957484
 30
0.0
 11
-427.5024
 21
577.957484
 31
0.0
  0
LINE
  5
110
100
AcDbEntity
  8
025-DWG
100
AcDbLine
 10
-424.871069
 20
561.457484
 30
0.0
 11
-427.2524
 21
561.457484
 31
0.0
  0
ARC
  5
111
100
AcDbEntity
  8
035-DWG
100
AcDbCircle
 10
-415.375131
 20
569.655542
 30
0.0
 40
28.5
100
AcDbArc
 50
92.426491
 51
145.110334
  0
ARC
  5
112
100
AcDbEntity
  8
025-DWG
100
AcDbCircle
 10
-413.832125
 20
618.635868
 30
0.0
 40
23.7
100
AcDbArc
 50
281.59778
 51
325.243593
  0
ARC
  5
113
100
AcDbEntity
  8
035-DWG
100
AcDbCircle
 10
-413.832125
 20
619.11177
 30
0.0
 40
20.0
100
AcDbArc
 50
281.59778
 51
348.209256
  0
ARC
  5
114
100
AcDbEntity
  8
035-DWG
100
AcDbCircle
 10
-416.405607
 20
617.858291
 30
0.0
 40
20.0
100
AcDbArc
 50
300.073334
 51
352.125425
  0
ARC
  5
115
100
AcDbEntity
  8
035-DWG
100
AcDbCircle
 10
-391.699698
 20
614.096501
 30
0.0
 40
5.0
100
AcDbArc
 50
77.583577
 51
168.209256
  0
ARC
  5
116
100
AcDbEntity
  8
025-DWG
100
AcDbCircle
 10
-413.832125
 20
618.635868
 30
0.0
 40
23.7
100
AcDbArc
 50
343.105811
 51
353.403307
  0
LINE
  5
117
100
AcDbEntity
  8
035-DWG
100
AcDbLine
 10
-419.313564
 20
597.882103
 30
0.0
 11
-419.193455
 21
597.897013
 31
0.0
  0
ARC
  5
118
100
AcDbEntity
  8
035-DWG
100
AcDbCircle
 10
-415.375131
 20
569.655542
 30
0.0
 40
24.5
100
AcDbArc
 50
97.94316
 51
106.429283
  0
ARC
  5
119
100
AcDbEntity
  8
025-DWG
100
AcDbCircle
 10
-415.375131
 20
569.655542
 30
0.0
 40
24.8
100
AcDbArc
 50
97.94316
 51
106.429283
  0
LINE
  5
11A
100
AcDbEntity
  8
025-DWG
100
AcDbLine
 10
-418.108245
 20
594.293251
 30
0.0
 11
-418.793251
 21
594.218721
 31
0.0
  0
ARC
  5
11B
100
AcDbEntity
  8
035-DWG
100
AcDbCircle
 10
-418.223018
 20
591.983213
 30
0.0
 40
2.0
100
AcDbArc
 50
103.445522
 51
205.503184
  0
ARC
  5
11C
100
AcDbEntity
  8
025-DWG
100
AcDbCircle
 10
-417.5024
 20
582.157935
 30
0.0
 40
12.3
100
AcDbArc
 50
113.589161
 51
120.757182
  0
LINE
  5
11D
100
AcDbEntity
  8
035-DWG
100
AcDbLine
 10
-411.010926
 20
594.763679
 30
0.0
 11
-418.760802
 21
593.920481
 31
0.0
  0
LINE
  5
11E
100
AcDbEntity
  8
035-DWG
100
AcDbLine
 10
-416.71904
 20
598.102438
 30
0.0
 11
-409.811326
 21
599.520109
 31
0.0
  0
LINE
  5
11F
100
AcDbEntity
  8
025-DWG
100
AcDbLine
 10
-411.043375
 20
595.061919
 30
0.0
 11
-416.488016
 21
594.469534
 31
0.0
  0
ARC
  5
120
100
AcDbEntity
  8
025-DWG
100
AcDbCircle
 10
-417.5024
 20
582.157935
 30
0.0
 40
12.3
100
AcDbArc
 50
135.449275
 51
157.867924
  0
LINE
  5
121
100
AcDbEntity
  8
035-DWG
100
AcDbLine
 10
-388.284539
 20
618.886376
 30
0.0
 11
-386.365836
 21
618.463945
 31
0.0
  0
ARC
  5
122
100
AcDbEntity
  8
035-DWG
100
AcDbCircle
 10
-385.692248
 20
617.80367
 30
0.0
 40
0.5
100
AcDbArc
 50
344.810118
 51
77.583577
  0
LINE
  5
123
100
AcDbEntity
  8
035-DWG
100
AcDbLine
 10
-386.365836
 20
618.463945
 30
0.0
 11
-385.58474
 21
618.291975
 31
0.0
  0
LINE
  5
124
100
AcDbEntity
  8
035-DWG
100
AcDbLine
 10
-518.719999
 20
979.269091
 30
0.0
 11
-518.719999
 21
1068.852239
 31
0.0
  0
LWPOLYLINE
  5
125
100
AcDbEntity
  8
025-DWG
  6
CONTINUOUS
100
AcDbPolyline
 90
       15
 70
   128
 43
0.0
 10
-773.91294
 20
859.192759
 10
-767.427923
 20
860.571248
 10
-760.868077
 20
861.755204
 10
-754.249053
 20
862.739093
 10
-747.586498
 20
863.51738
 10
-740.690915
 20
864.099449
 10
-733.761241
 20
864.458505
 10
-726.8172
 20
864.593099
 10
-719.878517
 20
864.501779
 10
-712.925166
 20
864.18235
 10
-705.99384
 20
863.637391
 10
-699.103968
 20
862.870089
 10
-692.148309
 20
861.864238
 10
-685.253997
 20
860.636182
 10
-678.438731
 20
859.192759
  0
LWPOLYLINE
  5
126
100
AcDbEntity
  8
025-DWG
  6
CONTINUOUS
100
AcDbPolyline
 90
       15
 70
   128
 43
0.0
 10
-678.032729
 20
860.16769
 10
-684.602935
 20
861.557476
 10
-691.248621
 20
862.750048
 10
-697.953904
 20
863.739851
 10
-704.702901
 20
864.521331
 10
-711.687591
 20
865.103843
 10
-718.70639
 20
865.460476
 10
-725.739329
 20
865.58981
 10
-732.766435
 20
865.490422
 10
-739.739046
 20
865.164454
 10
-746.689501
 20
864.614631
 10
-753.598715
 20
863.84409
 10
-760.572039
 20
862.836947
 10
-767.484585
 20
861.609255
 10
-774.318941
 20
860.16769
  0
LWPOLYLINE
  5
127
100
AcDbEntity
  8
025-DWG
  6
CONTINUOUS
100
AcDbPolyline
 90
       15
 70
   128
 43
0.0
 10
-774.318941
 20
866.026175
 10
-767.665024
 20
867.400167
 10
-760.935633
 20
868.576456
 10
-754.146899
 20
869.549507
 10
-747.314953
 20
870.313788
 10
-740.2454
 20
870.878151
 10
-733.142464
 20
871.216213
 10
-726.026349
 20
871.326652
 10
-718.917261
 20
871.208144
 10
-712.055865
 20
870.875398
 10
-705.216443
 20
870.3307
 10
-698.416736
 20
869.577015
 10
-691.55884
 20
868.599899
 10
-684.758771
 20
867.414234
 10
-678.032729
 20
866.026175
  0
LWPOLYLINE
  5
128
100
AcDbEntity
  8
035-DWG
  6
CONTINUOUS
100
AcDbPolyline
 90
       15
 70
   128
 43
0.0
 10
-678.032623
 20
867.002121
 10
-684.686548
 20
868.38136
 10
-691.415948
 20
869.562141
 10
-698.204692
 20
870.538909
 10
-705.036646
 20
871.306109
 10
-712.106209
 20
871.872627
 10
-719.209155
 20
872.211982
 10
-726.32528
 20
872.322844
 10
-733.434377
 20
872.203884
 10
-740.295796
 20
871.869868
 10
-747.135241
 20
871.323091
 10
-753.934971
 20
870.566527
 10
-760.79289
 20
869.585678
 10
-767.592983
 20
868.395483
 10
-774.319047
 20
867.002121
  0
LWPOLYLINE
  5
129
100
AcDbEntity
  8
035-DWG
  6
CONTINUOUS
100
AcDbPolyline
 90
       12
 70
   128
 43
0.0
 10
-763.343502
 20
851.378505
 10
-755.283046
 20
852.643519
 10
-747.128294
 20
853.60637
 10
-738.915028
 20
854.257637
 10
-732.547489
 20
854.542528
 10
-726.161965
 20
854.637214
 10
-719.776467
 20
854.541698
 10
-713.409006
 20
854.255982
 10
-707.270159
 20
853.79901
 10
-701.164115
 20
853.167498
 10
-695.059567
 20
852.358093
 10
-689.008168
 20
851.378505
  0
LWPOLYLINE
  5
12A
100
AcDbEntity
  8
025-DWG
  6
CONTINUOUS
100
AcDbPolyline
 90
       12
 70
   128
 43
0.0
 10
-690.871867
 20
860.556257
 10
-697.169339
 20
861.520657
 10
-703.515959
 20
862.298893
 10
-709.945477
 20
862.890613
 10
-716.40362
 20
863.28734
 10
-723.021139
 20
863.489087
 10
-729.644536
 20
863.484258
 10
-736.311368
 20
863.270191
 10
-742.959111
 20
862.847525
 10
-749.172386
 20
862.262249
 10
-755.350711
 20
861.49721
 10
-761.479803
 20
860.556257
  0
LWPOLYLINE
  5
12B
100
AcDbEntity
  8
025-DWG
  6
CONTINUOUS
100
AcDbPolyline
 90
       21
 70
   128
 43
0.0
 10
-763.321283
 20
853.831249
 10
-762.503541
 20
853.982233
 10
-758.481154
 20
854.646047
 10
-754.469532
 20
855.229601
 10
-750.484481
 20
855.731182
 10
-746.511421
 20
856.154521
 10
-742.507194
 20
856.504437
 10
-738.503013
 20
856.777528
 10
-734.497446
 20
856.974079
 10
-730.48903
 20
857.094262
 10
-726.476294
 20
857.138142
 10
-722.456334
 20
857.103912
 10
-718.522229
 20
856.993796
 10
-714.561454
 20
856.807677
 10
-710.573876
 20
856.544984
 10
-706.566727
 20
856.205493
 10
-702.547636
 20
855.789229
 10
-698.524625
 20
855.296477
 10
-694.506044
 20
854.727799
 10
-690.500513
 20
854.084049
 10
-689.034679
 20
853.819972
  0
LWPOLYLINE
  5
12C
100
AcDbEntity
  8
025-DWG
  6
CONTINUOUS
100
AcDbPolyline
 90
       19
 70
   128
 43
0.0
 10
-690.914501
 20
860.528286
 10
-692.7372
 20
860.83501
 10
-696.866011
 20
861.448712
 10
-701.010754
 20
861.984022
 10
-705.160872
 20
862.43959
 10
-709.306724
 20
862.814533
 10
-713.438948
 20
863.108321
 10
-717.548545
 20
863.320763
 10
-721.626946
 20
863.451995
 10
-725.666083
 20
863.502455
 10
-729.664291
 20
863.474481
 10
-733.721282
 20
863.369021
 10
-737.805267
 20
863.184271
 10
-741.885125
 20
862.920744
 10
-745.962249
 20
862.578317
 10
-750.038151
 20
862.156746
 10
-754.113931
 20
861.655416
 10
-758.161562
 20
861.077514
 10
-761.442609
 20
860.544752
  0
LWPOLYLINE
  5
12D
100
AcDbEntity
  8
025-DWG
  6
CONTINUOUS
100
AcDbPolyline
 90
        3
 70
   128
 43
0.0
 10
-788.371386
 20
857.813655
 10
-782.335943
 20
861.819294
 10
-776.263091
 20
865.682086
  0
LWPOLYLINE
  5
12E
100
AcDbEntity
  8
035-DWG
  6
CONTINUOUS
100
AcDbPolyline
 90
        3
 70
   128
 43
0.0
 10
-787.871778
 20
858.695216
 10
-781.938454
 20
862.634553
 10
-775.812304
 20
866.531726
  0
LINE
  5
12F
100
AcDbEntity
  8
025-DWG
  6
CONTINUOUS
100
AcDbLine
 10
-774.318941
 20
860.16769
 30
0.0
 11
-774.318941
 21
866.026175
 31
0.0
  0
LINE
  5
130
100
AcDbEntity
  8
025-DWG
  6
CONTINUOUS
100
AcDbLine
 10
-776.263091
 20
865.682086
 30
0.0
 11
-776.263091
 21
859.817387
 31
0.0
  0
LWPOLYLINE
  5
131
100
AcDbEntity
  8
025-DWG
  6
CONTINUOUS
100
AcDbPolyline
 90
        6
 70
   128
 43
0.0
 10
-767.386627
 20
857.452532
 10
-766.949861
 20
857.5455
 10
-766.539341
 20
857.714141
 10
-766.168476
 20
857.952947
 10
-765.84938
 20
858.254117
 10
-765.728628
 20
858.403254
  0
LWPOLYLINE
  5
132
100
AcDbEntity
  8
025-DWG
  6
CONTINUOUS
100
AcDbPolyline
 90
        5
 70
   128
 43
0.0
 10
-767.234957
 20
857.539093
 10
-767.272382
 20
857.522192
 10
-767.310136
 20
857.502108
 10
-767.348253
 20
857.478855
 10
-767.386627
 20
857.452532
  0
LINE
  5
133
100
AcDbEntity
  8
025-DWG
  6
CONTINUOUS
100
AcDbLine
 10
-767.234957
 20
857.539093
 30
0.0
 11
-767.423067
 21
857.501802
 31
0.0
  0
LWPOLYLINE
  5
134
100
AcDbEntity
  8
025-DWG
  6
CONTINUOUS
100
AcDbPolyline
 90
        9
 70
   128
 43
0.0
 10
-767.459562
 20
854.944534
 10
-767.04292
 20
855.022109
 10
-766.660139
 20
855.097174
 10
-766.323603
 20
855.167301
 10
-766.0442
 20
855.230221
 10
-765.830968
 20
855.283898
 10
-765.690805
 20
855.326597
 10
-765.628247
 20
855.356936
 10
-765.625048
 20
855.364041
  0
LWPOLYLINE
  5
135
100
AcDbEntity
  8
025-DWG
  6
CONTINUOUS
100
AcDbPolyline
 90
        5
 70
   128
 43
0.0
 10
-767.459562
 20
854.944534
 10
-767.377203
 20
853.947503
 10
-767.211946
 20
852.954461
 10
-767.121107
 20
852.592653
 10
-767.005734
 20
852.236301
  0
LWPOLYLINE
  5
136
100
AcDbEntity
  8
025-DWG
  6
CONTINUOUS
100
AcDbPolyline
 90
        9
 70
   128
 43
0.0
 10
-767.476971
 20
855.348116
 10
-767.067508
 20
855.365468
 10
-766.69118
 20
855.394091
 10
-766.359514
 20
855.433108
 10
-766.08267
 20
855.481324
 10
-765.869129
 20
855.537262
 10
-765.725431
 20
855.599208
 10
-765.655978
 20
855.665265
 10
-765.649605
 20
855.690181
  0
LWPOLYLINE
  5
137
100
AcDbEntity
  8
025-DWG
  6
CONTINUOUS
100
AcDbPolyline
 90
        6
 70
   128
 43
0.0
 10
-769.02281
 20
839.709887
 10
-768.749105
 20
839.385825
 10
-768.253358
 20
838.934113
 10
-767.411218
 20
838.226956
 10
-767.013444
 20
837.890458
 10
-767.005734
 20
837.883845
  0
LWPOLYLINE
  5
138
100
AcDbEntity
  8
025-DWG
  6
CONTINUOUS
100
AcDbPolyline
 90
        6
 70
   128
 43
0.0
 10
-767.005734
 20
837.883845
 10
-767.010424
 20
837.894889
 10
-767.37752
 20
838.733542
 10
-767.653753
 20
839.347438
 10
-767.915276
 20
839.94329
 10
-768.146354
 20
840.552218
  0
LWPOLYLINE
  5
139
100
AcDbEntity
  8
035-DWG
  6
CONTINUOUS
100
AcDbPolyline
 90
        6
 70
   128
 43
0.0
 10
-784.122303
 20
833.692385
 10
-780.194321
 20
834.766564
 10
-776.228419
 20
835.786209
 10
-772.220409
 20
836.74649
 10
-768.175835
 20
837.640038
 10
-767.005734
 20
837.883845
  0
LWPOLYLINE
  5
13A
100
AcDbEntity
  8
025-DWG
  6
CONTINUOUS
100
AcDbPolyline
 90
        5
 70
   128
 43
0.0
 10
-759.69609
 20
817.805687
 10
-764.701645
 20
818.411443
 10
-770.642584
 20
819.241648
 10
-776.5348
 20
820.185271
 10
-783.31893
 20
821.421507
  0
LWPOLYLINE
  5
13B
100
AcDbEntity
  8
025-DWG
  6
CONTINUOUS
100
AcDbPolyline
 90
        5
 70
   128
 43
0.0
 10
-783.27345
 20
820.465184
 10
-776.936844
 20
819.298638
 10
-771.661018
 20
818.434901
 10
-766.334001
 20
817.660998
 10
-759.66967
 20
816.830624
  0
LWPOLYLINE
  5
13C
100
AcDbEntity
  8
025-DWG
  6
CONTINUOUS
100
AcDbPolyline
 90
        5
 70
   128
 43
0.0
 10
-784.814038
 20
822.343239
 10
-784.6972
 20
821.707182
 10
-784.376419
 20
821.146383
 10
-783.887194
 20
820.718804
 10
-783.27345
 20
820.465184
  0
LWPOLYLINE
  5
13D
100
AcDbEntity
  8
025-DWG
  6
CONTINUOUS
100
AcDbPolyline
 90
        9
 70
   128
 43
0.0
 10
-783.31893
 20
821.421507
 10
-783.344358
 20
821.257929
 10
-783.3612
 20
821.098912
 10
-783.368986
 20
820.948893
 10
-783.367499
 20
820.812055
 10
-783.356779
 20
820.692214
 10
-783.337127
 20
820.592713
 10
-783.30909
 20
820.516326
 10
-783.27345
 20
820.465184
  0
LINE
  5
13E
100
AcDbEntity
  8
025-DWG
  6
CONTINUOUS
100
AcDbLine
 10
-784.814038
 20
822.343239
 30
0.0
 11
-788.371386
 21
820.253743
 31
0.0
  0
LINE
  5
13F
100
AcDbEntity
  8
035-DWG
  6
CONTINUOUS
100
AcDbLine
 10
-788.371386
 20
820.253743
 30
0.0
 11
-788.371386
 21
857.813655
 31
0.0
  0
LWPOLYLINE
  5
140
100
AcDbEntity
  8
025-DWG
  6
CONTINUOUS
100
AcDbPolyline
 90
        4
 70
   128
 43
0.0
 10
-786.780993
 20
818.425578
 10
-786.255686
 20
818.728138
 10
-784.672908
 20
819.645942
 10
-783.27345
 20
820.465184
  0
LWPOLYLINE
  5
141
100
AcDbEntity
  8
035-DWG
  6
CONTINUOUS
100
AcDbPolyline
 90
        5
 70
   128
 43
0.0
 10
-786.780993
 20
818.425578
 10
-787.464861
 20
818.687481
 10
-788.021016
 20
819.188969
 10
-788.310308
 20
819.787665
 10
-788.371386
 20
820.253743
  0
LWPOLYLINE
  5
142
100
AcDbEntity
  8
035-DWG
  6
CONTINUOUS
100
AcDbPolyline
 90
        5
 70
   128
 43
0.0
 10
-788.371386
 20
857.813655
 10
-788.323831
 20
858.110342
 10
-788.190377
 20
858.381494
 10
-787.960329
 20
858.631488
 10
-787.866581
 20
858.686213
  0
LINE
  5
143
100
AcDbEntity
  8
025-DWG
  6
CONTINUOUS
100
AcDbLine
 10
-776.263091
 20
859.817387
 30
0.0
 11
-776.994161
 21
859.357196
 31
0.0
  0
LWPOLYLINE
  5
144
100
AcDbEntity
  8
025-DWG
  6
CONTINUOUS
100
AcDbPolyline
 90
        9
 70
   128
 43
0.0
 10
-776.329106
 20
857.839546
 10
-776.516758
 20
857.861758
 10
-776.700117
 20
857.913767
 10
-776.872518
 20
857.993682
 10
-777.027694
 20
858.098599
 10
-777.160006
 20
858.224703
 10
-777.264642
 20
858.367412
 10
-777.337799
 20
858.521537
 10
-777.376819
 20
858.681475
  0
LWPOLYLINE
  5
145
100
AcDbEntity
  8
025-DWG
  6
CONTINUOUS
100
AcDbPolyline
 90
        6
 70
   128
 43
0.0
 10
-776.329106
 20
857.839546
 10
-776.220453
 20
858.002065
 10
-776.108656
 20
858.141352
 10
-775.992686
 20
858.257127
 10
-775.874878
 20
858.345051
 10
-775.802365
 20
858.384002
  0
LWPOLYLINE
  5
146
100
AcDbEntity
  8
025-DWG
  6
CONTINUOUS
100
AcDbPolyline
 90
        5
 70
   128
 43
0.0
 10
-776.994161
 20
859.357196
 10
-777.146288
 20
859.196613
 10
-777.294886
 20
858.906671
 10
-777.33638
 20
858.799074
 10
-777.376819
 20
858.681475
  0
LWPOLYLINE
  5
147
100
AcDbEntity
  8
025-DWG
  6
CONTINUOUS
100
AcDbPolyline
 90
        9
 70
   128
 43
0.0
 10
-775.802365
 20
858.384002
 10
-776.016304
 20
858.366082
 10
-776.230229
 20
858.396116
 10
-776.43379
 20
858.472649
 10
-776.617136
 20
858.591979
 10
-776.771399
 20
858.748333
 10
-776.889113
 20
858.934146
 10
-776.964585
 20
859.140427
 10
-776.994161
 20
859.357196
  0
LWPOLYLINE
  5
148
100
AcDbEntity
  8
025-DWG
  6
CONTINUOUS
100
AcDbPolyline
 90
        9
 70
   128
 43
0.0
 10
-774.318941
 20
860.16769
 10
-774.274619
 20
859.982391
 10
-774.224613
 20
859.803835
 10
-774.170745
 20
859.638521
 10
-774.114973
 20
859.492463
 10
-774.059328
 20
859.370976
 10
-774.005835
 20
859.278482
 10
-773.956439
 20
859.218347
 10
-773.91294
 20
859.192759
  0
LWPOLYLINE
  5
149
100
AcDbEntity
  8
025-DWG
  6
CONTINUOUS
100
AcDbPolyline
 90
        5
 70
   128
 43
0.0
 10
-775.074429
 20
858.843516
 10
-774.887162
 20
858.925174
 10
-774.556975
 20
859.029204
 10
-774.114356
 20
859.145272
 10
-773.91294
 20
859.192759
  0
LWPOLYLINE
  5
14A
100
AcDbEntity
  8
025-DWG
  6
CONTINUOUS
100
AcDbPolyline
 90
        9
 70
   128
 43
0.0
 10
-776.263091
 20
859.817387
 10
-776.23364
 20
859.600978
 10
-776.15845
 20
859.395002
 10
-776.041147
 20
859.20939
 10
-775.887386
 20
859.053091
 10
-775.704579
 20
858.93364
 10
-775.501541
 20
858.856796
 10
-775.288061
 20
858.826264
 10
-775.074429
 20
858.843516
  0
LINE
  5
14B
100
AcDbEntity
  8
025-DWG
  6
CONTINUOUS
100
AcDbLine
 10
-775.802365
 20
858.384002
 30
0.0
 11
-775.074429
 21
858.843516
 31
0.0
  0
LWPOLYLINE
  5
14C
100
AcDbEntity
  8
025-DWG
  6
CONTINUOUS
100
AcDbPolyline
 90
        5
 70
   128
 43
0.0
 10
-774.318941
 20
860.16769
 10
-775.107795
 20
860.051245
 10
-775.749105
 20
859.939873
 10
-776.168666
 20
859.846979
 10
-776.263091
 20
859.817387
  0
LWPOLYLINE
  5
14D
100
AcDbEntity
  8
025-DWG
  6
CONTINUOUS
100
AcDbPolyline
 90
        6
 70
   128
 43
0.0
 10
-768.750146
 20
859.588707
 10
-768.637294
 20
859.744495
 10
-768.513481
 20
859.873802
 10
-768.380425
 20
859.979086
 10
-768.240756
 20
860.060243
 10
-768.237411
 20
860.061859
  0
LINE
  5
14E
100
AcDbEntity
  8
025-DWG
  6
CONTINUOUS
100
AcDbLine
 10
-767.423067
 20
857.501802
 30
0.0
 11
-768.237411
 21
860.061859
 31
0.0
  0
LWPOLYLINE
  5
14F
100
AcDbEntity
  8
025-DWG
  6
CONTINUOUS
100
AcDbPolyline
 90
        6
 70
   128
 43
0.0
 10
-768.237411
 20
860.061859
 10
-768.244011
 20
860.059969
 10
-768.554636
 20
859.952897
 10
-768.857501
 20
859.811462
 10
-769.152578
 20
859.631484
 10
-769.431088
 20
859.410679
  0
LWPOLYLINE
  5
150
100
AcDbEntity
  8
025-DWG
  6
CONTINUOUS
100
AcDbPolyline
 90
        9
 70
   128
 43
0.0
 10
-769.431088
 20
859.410679
 10
-769.331655
 20
859.398592
 10
-769.234131
 20
859.396563
 10
-769.139665
 20
859.404613
 10
-769.049369
 20
859.42265
 10
-768.964306
 20
859.45046
 10
-768.885476
 20
859.487716
 10
-768.813809
 20
859.53398
 10
-768.750146
 20
859.588707
  0
LWPOLYLINE
  5
151
100
AcDbEntity
  8
025-DWG
  6
CONTINUOUS
100
AcDbPolyline
 90
        7
 70
   128
 43
0.0
 10
-768.94179
 20
858.721657
 10
-768.946005
 20
858.888284
 10
-768.93318
 20
859.056272
 10
-768.901202
 20
859.226048
 10
-768.846418
 20
859.397112
 10
-768.803772
 20
859.492773
 10
-768.750146
 20
859.588707
  0
LWPOLYLINE
  5
152
100
AcDbEntity
  8
025-DWG
  6
CONTINUOUS
100
AcDbPolyline
 90
        5
 70
   128
 43
0.0
 10
-767.386627
 20
857.452532
 10
-767.395994
 20
857.469413
 10
-767.405191
 20
857.483268
 10
-767.414227
 20
857.494086
 10
-767.423067
 20
857.501802
  0
LWPOLYLINE
  5
153
100
AcDbEntity
  8
025-DWG
  6
CONTINUOUS
100
AcDbPolyline
 90
        5
 70
   128
 43
0.0
 10
-767.476971
 20
855.348116
 10
-767.476477
 20
855.24805
 10
-767.473481
 20
855.147435
 10
-767.467872
 20
855.046086
 10
-767.459562
 20
854.944534
  0
LINE
  5
154
100
AcDbEntity
  8
025-DWG
  6
CONTINUOUS
100
AcDbLine
 10
-768.207205
 20
854.944534
 30
0.0
 11
-767.459562
 21
854.944534
 31
0.0
  0
LWPOLYLINE
  5
155
100
AcDbEntity
  8
025-DWG
  6
CONTINUOUS
100
AcDbPolyline
 90
        6
 70
   128
 43
0.0
 10
-768.245153
 20
856.521439
 10
-768.231844
 20
856.389843
 10
-768.220416
 20
856.098765
 10
-768.211934
 20
855.672996
 10
-768.207601
 20
855.160066
 10
-768.207205
 20
854.944534
  0
LINE
  5
156
100
AcDbEntity
  8
025-DWG
  6
CONTINUOUS
100
AcDbLine
 10
-768.94179
 20
858.721657
 30
0.0
 11
-768.245153
 21
856.521439
 31
0.0
  0
LWPOLYLINE
  5
157
100
AcDbEntity
  8
025-DWG
  6
CONTINUOUS
100
AcDbPolyline
 90
        5
 70
   128
 43
0.0
 10
-767.386627
 20
857.452532
 10
-767.423654
 20
857.119008
 10
-767.45294
 20
856.544687
 10
-767.471997
 20
855.782294
 10
-767.476971
 20
855.348116
  0
LWPOLYLINE
  5
158
100
AcDbEntity
  8
025-DWG
  6
CONTINUOUS
100
AcDbPolyline
 90
        9
 70
   128
 43
0.0
 10
-768.245153
 20
856.521439
 10
-768.229727
 20
856.693734
 10
-768.184661
 20
856.860841
 10
-768.11131
 20
857.017727
 10
-768.011886
 20
857.159667
 10
-767.88938
 20
857.282386
 10
-767.747484
 20
857.382188
 10
-767.59047
 20
857.456068
 10
-767.423067
 20
857.501802
  0
LWPOLYLINE
  5
159
100
AcDbEntity
  8
025-DWG
  6
CONTINUOUS
100
AcDbPolyline
 90
        6
 70
   128
 43
0.0
 10
-768.237411
 20
860.061859
 10
-769.050071
 20
859.895587
 10
-770.747186
 20
859.537596
 10
-772.438333
 20
859.166297
 10
-774.123673
 20
858.781688
 10
-775.802365
 20
858.384002
  0
LWPOLYLINE
  5
15A
100
AcDbEntity
  8
025-DWG
  6
CONTINUOUS
100
AcDbPolyline
 90
        3
 70
   128
 43
0.0
 10
-776.329106
 20
857.839546
 10
-772.895636
 20
858.652562
 10
-769.431088
 20
859.410679
  0
LWPOLYLINE
  5
15B
100
AcDbEntity
  8
025-DWG
  6
CONTINUOUS
100
AcDbPolyline
 90
        9
 70
   128
 43
0.0
 10
-769.878095
 20
857.879379
 10
-769.694024
 20
857.906138
 10
-769.51855
 20
857.961232
 10
-769.35777
 20
858.042748
 10
-769.21727
 20
858.147853
 10
-769.101931
 20
858.272895
 10
-769.015762
 20
858.413529
 10
-768.961756
 20
858.564869
 10
-768.94179
 20
858.721657
  0
LWPOLYLINE
  5
15C
100
AcDbEntity
  8
025-DWG
  6
CONTINUOUS
100
AcDbPolyline
 90
        5
 70
   128
 43
0.0
 10
-769.431088
 20
859.410679
 10
-769.694812
 20
858.943511
 10
-769.838164
 20
858.455807
 10
-769.874277
 20
858.167594
 10
-769.878095
 20
857.879379
  0
LWPOLYLINE
  5
15D
100
AcDbEntity
  8
025-DWG
  6
CONTINUOUS
100
AcDbPolyline
 90
        7
 70
   128
 43
0.0
 10
-784.122303
 20
833.692385
 10
-784.071965
 20
834.0975
 10
-783.998788
 20
834.498673
 10
-783.877735
 20
834.987275
 10
-783.730006
 20
835.44179
 10
-783.54645
 20
835.881385
 10
-783.342574
 20
836.257848
  0
LWPOLYLINE
  5
15E
100
AcDbEntity
  8
025-DWG
  6
CONTINUOUS
100
AcDbPolyline
 90
        7
 70
   128
 43
0.0
 10
-784.394197
 20
837.09954
 10
-784.538352
 20
836.559737
 10
-784.662833
 20
835.872028
 10
-784.742888
 20
835.205178
 10
-784.796343
 20
834.448072
 10
-784.809476
 20
834.074854
 10
-784.814038
 20
833.692385
  0
LINE
  5
15F
100
AcDbEntity
  8
025-DWG
  6
CONTINUOUS
100
AcDbLine
 10
-784.122303
 20
833.692385
 30
0.0
 11
-784.814038
 21
833.692385
 31
0.0
  0
LWPOLYLINE
  5
160
100
AcDbEntity
  8
025-DWG
  6
CONTINUOUS
100
AcDbPolyline
 90
        9
 70
   128
 43
0.0
 10
-783.342574
 20
836.257848
 10
-783.530717
 20
836.279528
 10
-783.71467
 20
836.331167
 10
-783.887714
 20
836.410877
 10
-784.043526
 20
836.515747
 10
-784.176414
 20
836.641945
 10
-784.281522
 20
836.784861
 10
-784.355012
 20
836.939273
 10
-784.394197
 20
837.09954
  0
LINE
  5
161
100
AcDbEntity
  8
025-DWG
  6
CONTINUOUS
100
AcDbLine
 10
-784.122303
 20
822.343239
 30
0.0
 11
-784.814038
 21
822.343239
 31
0.0
  0
LWPOLYLINE
  5
162
100
AcDbEntity
  8
025-DWG
  6
CONTINUOUS
100
AcDbPolyline
 90
        5
 70
   128
 43
0.0
 10
-783.31893
 20
821.421507
 10
-783.657331
 20
821.54814
 10
-783.933867
 20
821.790158
 10
-784.085296
 20
822.086018
 10
-784.122303
 20
822.343239
  0
LINE
  5
163
100
AcDbEntity
  8
035-DWG
  6
CONTINUOUS
100
AcDbLine
 10
-784.122303
 20
822.343239
 30
0.0
 11
-784.122303
 21
833.692385
 31
0.0
  0
LINE
  5
164
100
AcDbEntity
  8
025-DWG
  6
CONTINUOUS
100
AcDbLine
 10
-784.814038
 20
833.692385
 30
0.0
 11
-784.814038
 21
822.343239
 31
0.0
  0
LWPOLYLINE
  5
165
100
AcDbEntity
  8
025-DWG
  6
CONTINUOUS
100
AcDbPolyline
 90
        9
 70
   128
 43
0.0
 10
-769.02281
 20
839.709887
 10
-768.86663
 20
839.75621
 10
-768.716435
 20
839.824333
 10
-768.576337
 20
839.91239
 10
-768.450175
 20
840.017968
 10
-768.341402
 20
840.138178
 10
-768.252997
 20
840.269727
 10
-768.187382
 20
840.409012
 10
-768.146354
 20
840.552218
  0
LWPOLYLINE
  5
166
100
AcDbEntity
  8
025-DWG
  6
CONTINUOUS
100
AcDbPolyline
 90
        5
 70
   128
 43
0.0
 10
-769.144367
 20
840.105425
 10
-769.133883
 20
840.005253
 10
-769.110527
 20
839.905915
 10
-769.073562
 20
839.806945
 10
-769.02281
 20
839.709887
  0
LWPOLYLINE
  5
167
100
AcDbEntity
  8
025-DWG
  6
CONTINUOUS
100
AcDbPolyline
 90
        9
 70
   128
 43
0.0
 10
-769.144367
 20
840.105425
 10
-768.960167
 20
840.132074
 10
-768.784549
 20
840.187096
 10
-768.623621
 20
840.268578
 10
-768.482981
 20
840.373685
 10
-768.367521
 20
840.498761
 10
-768.281258
 20
840.639456
 10
-768.227192
 20
840.790874
 10
-768.207205
 20
840.947749
  0
LWPOLYLINE
  5
168
100
AcDbEntity
  8
025-DWG
  6
CONTINUOUS
100
AcDbPolyline
 90
        5
 70
   128
 43
0.0
 10
-768.146354
 20
840.552218
 10
-768.171626
 20
840.648674
 10
-768.190043
 20
840.746783
 10
-768.201888
 20
840.846774
 10
-768.207205
 20
840.947749
  0
LWPOLYLINE
  5
169
100
AcDbEntity
  8
025-DWG
  6
CONTINUOUS
100
AcDbPolyline
 90
        5
 70
   128
 43
0.0
 10
-769.02281
 20
839.709887
 10
-772.638837
 20
838.923562
 10
-776.230291
 20
838.083746
 10
-779.79969
 20
837.193567
 10
-783.342574
 20
836.257848
  0
LINE
  5
16A
100
AcDbEntity
  8
025-DWG
  6
CONTINUOUS
100
AcDbLine
 10
-768.207205
 20
854.944534
 30
0.0
 11
-768.207205
 21
840.947749
 31
0.0
  0
LWPOLYLINE
  5
16B
100
AcDbEntity
  8
025-DWG
  6
CONTINUOUS
100
AcDbPolyline
 90
        3
 70
   128
 43
0.0
 10
-768.207205
 20
840.947749
 10
-768.574496
 20
849.83477
 10
-768.94179
 20
858.721657
  0
LWPOLYLINE
  5
16C
100
AcDbEntity
  8
025-DWG
  6
CONTINUOUS
100
AcDbPolyline
 90
        4
 70
   128
 43
0.0
 10
-769.878095
 20
857.879379
 10
-769.833917
 20
856.809238
 10
-769.657205
 20
852.528657
 10
-769.144367
 20
840.105425
  0
LWPOLYLINE
  5
16D
100
AcDbEntity
  8
025-DWG
  6
CONTINUOUS
100
AcDbPolyline
 90
        4
 70
   128
 43
0.0
 10
-783.342574
 20
836.257848
 10
-782.992449
 20
837.335712
 10
-781.591972
 20
841.646772
 10
-776.329106
 20
857.839546
  0
LINE
  5
16E
100
AcDbEntity
  8
025-DWG
  6
CONTINUOUS
100
AcDbLine
 10
-777.376819
 20
858.681475
 30
0.0
 11
-784.394197
 21
837.09954
 31
0.0
  0
LINE
  5
16F
100
AcDbEntity
  8
025-DWG
  6
CONTINUOUS
100
AcDbLine
 10
-761.479803
 20
860.556257
 30
0.0
 11
-761.444021
 21
860.552628
 31
0.0
  0
LINE
  5
170
100
AcDbEntity
  8
025-DWG
  6
CONTINUOUS
100
AcDbLine
 10
-758.916919
 20
817.796961
 30
0.0
 11
-758.821479
 21
825.955353
 31
0.0
  0
LINE
  5
171
100
AcDbEntity
  8
025-DWG
  6
CONTINUOUS
100
AcDbLine
 10
-759.600226
 20
825.959814
 30
0.0
 11
-759.69609
 21
817.805687
 31
0.0
  0
LINE
  5
172
100
AcDbEntity
  8
025-DWG
  6
CONTINUOUS
100
AcDbLine
 10
-756.260929
 20
817.008999
 30
0.0
 11
-756.151428
 21
825.95113
 31
0.0
  0
LINE
  5
173
100
AcDbEntity
  8
025-DWG
  6
CONTINUOUS
100
AcDbLine
 10
-756.889545
 20
825.955353
 30
0.0
 11
-756.995959
 21
817.265285
 31
0.0
  0
LINE
  5
174
100
AcDbEntity
  8
025-DWG
  6
CONTINUOUS
100
AcDbLine
 10
-756.995959
 20
817.265285
 30
0.0
 11
-758.916919
 21
817.796961
 31
0.0
  0
LWPOLYLINE
  5
175
100
AcDbEntity
  8
025-DWG
  6
CONTINUOUS
100
AcDbPolyline
 90
        6
 70
   128
 43
0.0
 10
-756.995959
 20
817.265285
 10
-756.854112
 20
817.196035
 10
-756.692041
 20
817.130379
 10
-756.52227
 20
817.073986
 10
-756.339486
 20
817.025824
 10
-756.260929
 20
817.008999
  0
LWPOLYLINE
  5
176
100
AcDbEntity
  8
025-DWG
  6
CONTINUOUS
100
AcDbPolyline
 90
        9
 70
   128
 43
0.0
 10
-759.69609
 20
817.805687
 10
-759.712348
 20
817.635577
 10
-759.723236
 20
817.470488
 10
-759.728433
 20
817.315292
 10
-759.727786
 20
817.17457
 10
-759.721312
 20
817.052476
 10
-759.709204
 20
816.952612
 10
-759.691819
 20
816.877927
 10
-759.66967
 20
816.830624
  0
LWPOLYLINE
  5
177
100
AcDbEntity
  8
025-DWG
  6
CONTINUOUS
100
AcDbPolyline
 90
        9
 70
   128
 43
0.0
 10
-759.66967
 20
816.830624
 10
-759.550226
 20
816.857247
 10
-759.430076
 20
816.917613
 10
-759.313497
 20
817.009577
 10
-759.204634
 20
817.129865
 10
-759.107363
 20
817.274199
 10
-759.025143
 20
817.437442
 10
-758.960899
 20
817.613788
 10
-758.916919
 20
817.796961
  0
LWPOLYLINE
  5
178
100
AcDbEntity
  8
025-DWG
  6
CONTINUOUS
100
AcDbPolyline
 90
        9
 70
   128
 43
0.0
 10
-759.69609
 20
817.805687
 10
-759.59345
 20
817.804464
 10
-759.490136
 20
817.803253
 10
-759.387253
 20
817.802068
 10
-759.285898
 20
817.800922
 10
-759.187153
 20
817.799827
 10
-759.092074
 20
817.798795
 10
-759.001674
 20
817.797836
 10
-758.916919
 20
817.796961
  0
LWPOLYLINE
  5
179
100
AcDbEntity
  8
025-DWG
  6
CONTINUOUS
100
AcDbPolyline
 90
        5
 70
   128
 43
0.0
 10
-759.600226
 20
825.959814
 10
-759.541372
 20
825.959447
 10
-759.449258
 20
825.958882
 10
-759.117483
 20
825.956942
 10
-758.821506
 20
825.955353
  0
LWPOLYLINE
  5
17A
100
AcDbEntity
  8
025-DWG
  6
CONTINUOUS
100
AcDbPolyline
 90
       20
 70
   128
 43
0.0
 10
-743.115532
 20
825.959814
 10
-743.236528
 20
827.386647
 10
-743.59163
 20
828.773547
 10
-744.174821
 20
830.080847
 10
-744.967324
 20
831.271746
 10
-745.947258
 20
832.306619
 10
-747.086611
 20
833.160055
 10
-748.336145
 20
833.795172
 10
-749.673449
 20
834.208645
 10
-751.040047
 20
834.383104
 10
-752.415177
 20
834.324146
 10
-753.749318
 20
834.033269
 10
-755.01609
 20
833.523094
 10
-756.183723
 20
832.802927
 10
-757.217475
 20
831.898374
 10
-758.098311
 20
830.818651
 10
-758.791647
 20
829.60708
 10
-759.282944
 20
828.275786
 10
-759.550741
 20
826.880552
 10
-759.600226
 20
825.959814
  0
LINE
  5
17B
100
AcDbEntity
  8
025-DWG
  6
CONTINUOUS
100
AcDbLine
 10
-758.821479
 20
825.955353
 30
0.0
 11
-758.821506
 21
825.955353
 31
0.0
  0
LWPOLYLINE
  5
17C
100
AcDbEntity
  8
025-DWG
  6
CONTINUOUS
100
AcDbPolyline
 90
        5
 70
   128
 43
0.0
 10
-756.889515
 20
825.955353
 10
-756.593537
 20
825.953683
 10
-756.26176
 20
825.95177
 10
-756.206308
 20
825.951449
 10
-756.151428
 20
825.95113
  0
LINE
  5
17D
100
AcDbEntity
  8
025-DWG
  6
CONTINUOUS
100
AcDbLine
 10
-756.889515
 20
825.955353
 30
0.0
 11
-756.889545
 21
825.955353
 31
0.0
  0
LWPOLYLINE
  5
17E
100
AcDbEntity
  8
025-DWG
  6
CONTINUOUS
100
AcDbPolyline
 90
        9
 70
   128
 43
0.0
 10
-753.641456
 20
826.739075
 10
-753.474662
 20
827.11854
 10
-752.798901
 20
827.843461
 10
-751.938794
 20
828.298072
 10
-750.994916
 20
828.443053
 10
-750.065386
 20
828.271376
 10
-749.243394
 20
827.800782
 10
-748.617377
 20
827.074322
 10
-748.409851
 20
826.540116
  0
LWPOLYLINE
  5
17F
100
AcDbEntity
  8
025-DWG
  6
CONTINUOUS
100
AcDbPolyline
 90
       37
 70
   128
 43
0.0
 10
-752.987831
 20
823.91211
 10
-752.615358
 20
823.615265
 10
-752.196376
 20
823.389031
 10
-751.743616
 20
823.240282
 10
-751.270834
 20
823.173538
 10
-750.792397
 20
823.190827
 10
-750.32284
 20
823.291623
 10
-749.876431
 20
823.472864
 10
-749.466734
 20
823.729043
 10
-749.106198
 20
824.052377
 10
-748.805777
 20
824.433039
 10
-748.574599
 20
824.859466
 10
-748.419689
 20
825.318699
 10
-748.345753
 20
825.796785
 10
-748.355038
 20
826.279198
 10
-748.447262
 20
826.75128
 10
-748.619623
 20
827.198687
 10
-748.866883
 20
827.607825
 10
-749.18153
 20
827.966261
 10
-749.554002
 20
828.263106
 10
-749.972984
 20
828.48934
 10
-750.425745
 20
828.638089
 10
-750.898526
 20
828.704833
 10
-751.376964
 20
828.687544
 10
-751.846521
 20
828.586748
 10
-752.29293
 20
828.405507
 10
-752.702626
 20
828.149328
 10
-753.063163
 20
827.825995
 10
-753.363584
 20
827.445332
 10
-753.594761
 20
827.018905
 10
-753.749672
 20
826.559672
 10
-753.823607
 20
826.081586
 10
-753.814322
 20
825.599173
 10
-753.722098
 20
825.127091
 10
-753.549738
 20
824.679684
 10
-753.302478
 20
824.270547
 10
-752.987831
 20
823.91211
  0
LINE
  5
180
100
AcDbEntity
  8
025-DWG
  6
CONTINUOUS
100
AcDbLine
 10
-756.889545
 20
825.955353
 30
0.0
 11
-758.821479
 21
825.955353
 31
0.0
  0
LWPOLYLINE
  5
181
100
AcDbEntity
  8
025-DWG
  6
CONTINUOUS
100
AcDbPolyline
 90
        5
 70
   128
 43
0.0
 10
-745.987575
 20
825.95113
 10
-745.933074
 20
825.951449
 10
-745.878767
 20
825.95177
 10
-745.570056
 20
825.953683
 10
-745.322462
 20
825.955353
  0
LINE
  5
182
100
AcDbEntity
  8
025-DWG
  6
CONTINUOUS
100
AcDbLine
 10
-743.821509
 20
825.955353
 30
0.0
 11
-745.322439
 21
825.955353
 31
0.0
  0
LINE
  5
183
100
AcDbEntity
  8
025-DWG
  6
CONTINUOUS
100
AcDbLine
 10
-745.322439
 20
825.955353
 30
0.0
 11
-745.322462
 21
825.955353
 31
0.0
  0
LINE
  5
184
100
AcDbEntity
  8
025-DWG
  6
CONTINUOUS
100
AcDbLine
 10
-743.821488
 20
825.955353
 30
0.0
 11
-743.821509
 21
825.955353
 31
0.0
  0
LWPOLYLINE
  5
185
100
AcDbEntity
  8
025-DWG
  6
CONTINUOUS
100
AcDbPolyline
 90
        5
 70
   128
 43
0.0
 10
-743.821488
 20
825.955353
 10
-743.573895
 20
825.956942
 10
-743.265186
 20
825.958882
 10
-743.174554
 20
825.959447
 10
-743.115532
 20
825.959814
  0
LWPOLYLINE
  5
186
100
AcDbEntity
  8
025-DWG
  6
CONTINUOUS
100
AcDbPolyline
 90
       16
 70
   128
 43
0.0
 10
-756.151428
 20
825.95113
 10
-756.041131
 20
827.01666
 10
-755.713322
 20
828.035758
 10
-755.182344
 20
828.963836
 10
-754.471428
 20
829.760292
 10
-753.611675
 20
830.39028
 10
-752.6407
 20
830.826237
 10
-751.600985
 20
831.049091
 10
-750.538018
 20
831.049091
 10
-749.498303
 20
830.826237
 10
-748.527328
 20
830.39028
 10
-747.667575
 20
829.760292
 10
-746.956658
 20
828.963836
 10
-746.425681
 20
828.035758
 10
-746.097872
 20
827.01666
 10
-745.987575
 20
825.95113
  0
LWPOLYLINE
  5
187
100
AcDbEntity
  8
025-DWG
  6
CONTINUOUS
100
AcDbPolyline
 90
       17
 70
   128
 43
0.0
 10
-745.322462
 20
825.955353
 10
-745.433591
 20
827.092521
 10
-745.762707
 20
828.185989
 10
-746.297162
 20
829.193734
 10
-747.016418
 20
830.07703
 10
-747.892833
 20
830.801933
 10
-748.892729
 20
831.340584
 10
-749.977678
 20
831.672284
 10
-751.105988
 20
831.784285
 10
-752.234298
 20
831.672284
 10
-753.319248
 20
831.340584
 10
-754.319144
 20
830.801933
 10
-755.195559
 20
830.07703
 10
-755.914815
 20
829.193734
 10
-756.44927
 20
828.185989
 10
-756.778386
 20
827.092521
 10
-756.889515
 20
825.955353
  0
LWPOLYLINE
  5
188
100
AcDbEntity
  8
025-DWG
  6
CONTINUOUS
100
AcDbPolyline
 90
       20
 70
   128
 43
0.0
 10
-758.821506
 20
825.955353
 10
-758.742625
 20
827.073589
 10
-758.508854
 20
828.169301
 10
-758.035014
 20
829.407297
 10
-757.3619
 20
830.546541
 10
-756.513815
 20
831.541735
 10
-755.510138
 20
832.376212
 10
-754.400459
 20
833.009767
 10
-753.199198
 20
833.443073
 10
-751.967526
 20
833.656303
 10
-750.716694
 20
833.657056
 10
-749.497811
 20
833.446034
 10
-748.329593
 20
833.034268
 10
-747.241936
 20
832.429553
 10
-746.266801
 20
831.653808
 10
-745.418643
 20
830.710946
 10
-744.734638
 20
829.641681
 10
-744.225414
 20
828.448234
 10
-743.917918
 20
827.1871
 10
-743.821488
 20
825.955353
  0
LWPOLYLINE
  5
189
100
AcDbEntity
  8
025-DWG
  6
CONTINUOUS
100
AcDbPolyline
 90
        3
 70
   128
 43
0.0
 10
-765.206486
 20
859.602165
 10
-764.782703
 20
859.70934
 10
-764.418162
 20
859.871138
  0
LINE
  5
18A
100
AcDbEntity
  8
025-DWG
  6
CONTINUOUS
100
AcDbLine
 10
-764.184278
 20
859.961335
 30
0.0
 11
-765.896583
 21
858.235196
 31
0.0
  0
LWPOLYLINE
  5
18B
100
AcDbEntity
  8
025-DWG
  6
CONTINUOUS
100
AcDbPolyline
 90
        5
 70
   128
 43
0.0
 10
-767.234957
 20
857.539093
 10
-766.814757
 20
857.649076
 10
-766.421011
 20
857.830904
 10
-766.065802
 20
858.078996
 10
-765.933726
 20
858.198319
  0
LINE
  5
18C
100
AcDbEntity
  8
025-DWG
  6
CONTINUOUS
100
AcDbLine
 10
-765.206486
 20
859.602165
 30
0.0
 11
-767.234957
 21
857.539093
 31
0.0
  0
LINE
  5
18D
100
AcDbEntity
  8
025-DWG
  6
CONTINUOUS
100
AcDbLine
 10
-765.933726
 20
858.198319
 30
0.0
 11
-765.896371
 21
858.235412
 31
0.0
  0
LWPOLYLINE
  5
18E
100
AcDbEntity
  8
025-DWG
  6
CONTINUOUS
100
AcDbPolyline
 90
        9
 70
   128
 43
0.0
 10
-767.005734
 20
852.236301
 10
-766.656545
 20
852.692414
 10
-766.299153
 20
853.124445
 10
-765.95243
 20
853.509582
 10
-765.634681
 20
853.827492
 10
-765.362683
 20
854.061389
 10
-765.150798
 20
854.198923
 10
-765.010213
 20
854.232832
 10
-764.979045
 20
854.21949
  0
LWPOLYLINE
  5
18F
100
AcDbEntity
  8
025-DWG
  6
CONTINUOUS
100
AcDbPolyline
 90
        3
 70
   128
 43
0.0
 10
-765.642569
 20
855.689838
 10
-765.648316
 20
855.587587
 10
-765.617848
 20
855.363952
  0
LWPOLYLINE
  5
190
100
AcDbEntity
  8
025-DWG
  6
CONTINUOUS
100
AcDbPolyline
 90
        5
 70
   128
 43
0.0
 10
-765.623272
 20
855.366237
 10
-765.51334
 20
854.956886
 10
-765.306712
 20
854.566546
 10
-765.125433
 20
854.348519
 10
-764.977014
 20
854.222185
  0
LWPOLYLINE
  5
191
100
AcDbEntity
  8
025-DWG
  6
CONTINUOUS
100
AcDbPolyline
 90
        9
 70
   128
 43
0.0
 10
-763.343502
 20
851.378505
 10
-763.419916
 20
851.875535
 10
-763.474276
 20
852.352102
 10
-763.504342
 20
852.788586
 10
-763.508877
 20
853.167014
 10
-763.487695
 20
853.471808
 10
-763.441667
 20
853.690419
 10
-763.372689
 20
853.813846
 10
-763.322692
 20
853.839739
  0
LWPOLYLINE
  5
192
100
AcDbEntity
  8
035-DWG
  6
CONTINUOUS
100
AcDbPolyline
 90
        6
 70
   128
 43
0.0
 10
-767.005734
 20
852.236301
 10
-766.347451
 20
851.821821
 10
-765.607561
 20
851.518775
 10
-764.85126
 20
851.349736
 10
-764.056728
 20
851.306006
 10
-763.343502
 20
851.378505
  0
LWPOLYLINE
  5
193
100
AcDbEntity
  8
025-DWG
  6
CONTINUOUS
100
AcDbPolyline
 90
        5
 70
   128
 43
0.0
 10
-764.977968
 20
854.223702
 10
-764.62862
 20
854.005193
 10
-764.18695
 20
853.854486
 10
-763.705647
 20
853.804049
 10
-763.324647
 20
853.84934
  0
LWPOLYLINE
  5
194
100
AcDbEntity
  8
025-DWG
  6
CONTINUOUS
100
AcDbPolyline
 90
        8
 70
   128
 43
0.0
 10
-765.46485
 20
858.670417
 10
-765.466863
 20
858.6576
 10
-765.506906
 20
858.333759
 10
-765.548019
 20
857.903703
 10
-765.585488
 20
857.386737
 10
-765.617008
 20
856.788955
 10
-765.639977
 20
856.135012
 10
-765.648377
 20
855.69014
  0
LINE
  5
195
100
AcDbEntity
  8
035-DWG
  6
CONTINUOUS
100
AcDbLine
 10
-767.005734
 20
837.883845
 30
0.0
 11
-767.005734
 21
852.236301
 31
0.0
  0
LWPOLYLINE
  5
196
100
AcDbEntity
  8
025-DWG
  6
CONTINUOUS
100
AcDbPolyline
 90
        8
 70
   128
 43
0.0
 10
-761.479803
 20
860.556257
 10
-762.215175
 20
860.425326
 10
-762.907559
 20
860.288274
 10
-763.536658
 20
860.149478
 10
-764.086613
 20
860.013323
 10
-764.544699
 20
859.883188
 10
-764.894098
 20
859.764457
 10
-765.206486
 20
859.602165
  0
LWPOLYLINE
  5
197
100
AcDbEntity
  8
025-DWG
  6
CONTINUOUS
100
AcDbPolyline
 90
       10
 70
   128
 43
0.0
 10
-761.442488
 20
860.551479
 10
-761.751979
 20
860.499523
 10
-762.372153
 20
860.384648
 10
-762.949662
 20
860.266876
 10
-763.456675
 20
860.152823
 10
-763.880725
 20
860.046829
 10
-764.168236
 20
859.966391
 10
-764.348629
 20
859.909534
 10
-764.425682
 20
859.881951
 10
-764.422409
 20
859.883495
  0
LWPOLYLINE
  5
198
100
AcDbEntity
  8
025-DWG
  6
CONTINUOUS
100
AcDbPolyline
 90
        7
 70
   128
 43
0.0
 10
-775.819114
 20
866.527459
 10
-775.938576
 20
866.437893
 10
-776.054356
 20
866.315843
 10
-776.147083
 20
866.174804
 10
-776.213979
 20
866.019003
 10
-776.253038
 20
865.853107
 10
-776.263091
 20
865.682086
  0
LWPOLYLINE
  5
199
100
AcDbEntity
  8
025-DWG
  6
CONTINUOUS
100
AcDbPolyline
 90
        9
 70
   128
 43
0.0
 10
-774.319047
 20
867.002121
 10
-774.356944
 20
866.990824
 10
-774.385163
 20
866.940383
 10
-774.40256
 20
866.852847
 10
-774.408429
 20
866.731766
 10
-774.402531
 20
866.582055
 10
-774.385106
 20
866.409787
 10
-774.35686
 20
866.221953
 10
-774.318941
 20
866.026175
  0
LWPOLYLINE
  5
19A
100
AcDbEntity
  8
025-DWG
  6
CONTINUOUS
100
AcDbPolyline
 90
        5
 70
   128
 43
0.0
 10
-776.263091
 20
865.682086
 10
-775.952217
 20
865.762357
 10
-775.401676
 20
865.864667
 10
-774.669082
 20
865.977716
 10
-774.318941
 20
866.026175
  0
LWPOLYLINE
  5
19B
100
AcDbEntity
  8
035-DWG
  6
CONTINUOUS
100
AcDbPolyline
 90
        7
 70
   128
 43
0.0
 10
-775.817911
 20
866.525222
 10
-775.743634
 20
866.571529
 10
-775.596572
 20
866.641694
 10
-775.367073
 20
866.727413
 10
-775.046804
 20
866.825074
 10
-774.647087
 20
866.92954
 10
-774.334336
 20
867.001481
  0
LINE
  5
19C
100
AcDbEntity
  8
025-DWG
  6
CONTINUOUS
100
AcDbLine
 10
-678.032729
 20
866.026175
 30
0.0
 11
-678.032729
 21
860.16769
 31
0.0
  0
LWPOLYLINE
  5
19D
100
AcDbEntity
  8
025-DWG
  6
CONTINUOUS
100
AcDbPolyline
 90
        3
 70
   128
 43
0.0
 10
-676.088579
 20
865.682086
 10
-670.015727
 20
861.819294
 10
-663.980284
 20
857.813655
  0
LINE
  5
19E
100
AcDbEntity
  8
025-DWG
  6
CONTINUOUS
100
AcDbLine
 10
-676.088579
 20
859.817387
 30
0.0
 11
-676.088579
 21
865.682086
 31
0.0
  0
LWPOLYLINE
  5
19F
100
AcDbEntity
  8
035-DWG
  6
CONTINUOUS
100
AcDbPolyline
 90
        3
 70
   128
 43
0.0
 10
-676.539366
 20
866.531726
 10
-670.413216
 20
862.634553
 10
-664.479535
 20
858.694978
  0
LWPOLYLINE
  5
1A0
100
AcDbEntity
  8
025-DWG
  6
CONTINUOUS
100
AcDbPolyline
 90
        6
 70
   128
 43
0.0
 10
-682.920604
 20
859.410576
 10
-683.189647
 20
859.624791
 10
-683.478828
 20
859.803102
 10
-683.787415
 20
859.948885
 10
-684.10769
 20
860.059874
 10
-684.11429
 20
860.061763
  0
LWPOLYLINE
  5
1A1
100
AcDbEntity
  8
025-DWG
  6
CONTINUOUS
100
AcDbPolyline
 90
        9
 70
   128
 43
0.0
 10
-682.920604
 20
859.410576
 10
-683.020039
 20
859.39849
 10
-683.117563
 20
859.39646
 10
-683.21203
 20
859.404511
 10
-683.302327
 20
859.422547
 10
-683.387392
 20
859.450358
 10
-683.466222
 20
859.487615
 10
-683.537891
 20
859.533879
 10
-683.601554
 20
859.588607
  0
LWPOLYLINE
  5
1A2
100
AcDbEntity
  8
025-DWG
  6
CONTINUOUS
100
AcDbPolyline
 90
        9
 70
   128
 43
0.0
 10
-682.473602
 20
857.87928
 10
-682.657673
 20
857.906038
 10
-682.833148
 20
857.961132
 10
-682.993929
 20
858.042648
 10
-683.13443
 20
858.147753
 10
-683.249769
 20
858.272795
 10
-683.335939
 20
858.413429
 10
-683.389945
 20
858.56477
 10
-683.409911
 20
858.721558
  0
LWPOLYLINE
  5
1A3
100
AcDbEntity
  8
025-DWG
  6
CONTINUOUS
100
AcDbPolyline
 90
        5
 70
   128
 43
0.0
 10
-683.328855
 20
839.710534
 10
-683.279195
 20
839.805155
 10
-683.242344
 20
839.90261
 10
-683.218205
 20
840.003415
 10
-683.207296
 20
840.106077
  0
LWPOLYLINE
  5
1A4
100
AcDbEntity
  8
025-DWG
  6
CONTINUOUS
100
AcDbPolyline
 90
        9
 70
   128
 43
0.0
 10
-683.207296
 20
840.106077
 10
-683.391497
 20
840.132725
 10
-683.567116
 20
840.187747
 10
-683.728046
 20
840.269229
 10
-683.868687
 20
840.374336
 10
-683.984148
 20
840.499412
 10
-684.070411
 20
840.640107
 10
-684.124478
 20
840.791526
 10
-684.144465
 20
840.948401
  0
LWPOLYLINE
  5
1A5
100
AcDbEntity
  8
025-DWG
  6
CONTINUOUS
100
AcDbPolyline
 90
        6
 70
   128
 43
0.0
 10
-676.549055
 20
858.383843
 10
-678.226563
 20
858.781252
 10
-679.911223
 20
859.165719
 10
-681.603196
 20
859.537214
 10
-683.30163
 20
859.89549
 10
-684.11429
 20
860.061763
  0
LWPOLYLINE
  5
1A6
100
AcDbEntity
  8
025-DWG
  6
CONTINUOUS
100
AcDbPolyline
 90
        5
 70
   128
 43
0.0
 10
-669.03274
 20
821.421507
 10
-676.481044
 20
820.072883
 10
-681.729128
 20
819.238643
 10
-687.026761
 20
818.492856
 10
-692.65558
 20
817.805687
  0
LWPOLYLINE
  5
1A7
100
AcDbEntity
  8
025-DWG
  6
CONTINUOUS
100
AcDbPolyline
 90
        5
 70
   128
 43
0.0
 10
-692.682
 20
816.830624
 10
-687.724495
 20
817.433782
 10
-682.796422
 20
818.117226
 10
-675.900263
 20
819.215099
 10
-669.07822
 20
820.465184
  0
LWPOLYLINE
  5
1A8
100
AcDbEntity
  8
035-DWG
  6
CONTINUOUS
100
AcDbPolyline
 90
        6
 70
   128
 43
0.0
 10
-685.345936
 20
837.884479
 10
-684.175835
 20
837.640688
 10
-680.143764
 20
836.750022
 10
-676.142781
 20
835.791641
 10
-672.169265
 20
834.770181
 10
-668.229367
 20
833.69268
  0
LWPOLYLINE
  5
1A9
100
AcDbEntity
  8
025-DWG
  6
CONTINUOUS
100
AcDbPolyline
 90
        5
 70
   128
 43
0.0
 10
-669.009139
 20
836.258242
 10
-672.543435
 20
837.191882
 10
-676.107401
 20
838.080972
 10
-679.703908
 20
838.922202
 10
-683.328855
 20
839.710534
  0
LINE
  5
1AA
100
AcDbEntity
  8
025-DWG
  6
CONTINUOUS
100
AcDbLine
 10
-693.530192
 20
825.955353
 30
0.0
 11
-693.434751
 21
817.796961
 31
0.0
  0
LINE
  5
1AB
100
AcDbEntity
  8
025-DWG
  6
CONTINUOUS
100
AcDbLine
 10
-692.65558
 20
817.805687
 30
0.0
 11
-692.751444
 21
825.959814
 31
0.0
  0
LINE
  5
1AC
100
AcDbEntity
  8
025-DWG
  6
CONTINUOUS
100
AcDbLine
 10
-696.200243
 20
825.95113
 30
0.0
 11
-696.090742
 21
817.008999
 31
0.0
  0
LINE
  5
1AD
100
AcDbEntity
  8
025-DWG
  6
CONTINUOUS
100
AcDbLine
 10
-695.355711
 20
817.265285
 30
0.0
 11
-695.462125
 21
825.955353
 31
0.0
  0
LWPOLYLINE
  5
1AE
100
AcDbEntity
  8
025-DWG
  6
CONTINUOUS
100
AcDbPolyline
 90
        6
 70
   128
 43
0.0
 10
-696.090742
 20
817.008999
 10
-695.92529
 20
817.047146
 10
-695.758466
 20
817.096127
 10
-695.604664
 20
817.151247
 10
-695.458698
 20
817.213774
 10
-695.355711
 20
817.265285
  0
LWPOLYLINE
  5
1AF
100
AcDbEntity
  8
025-DWG
  6
CONTINUOUS
100
AcDbPolyline
 90
        9
 70
   128
 43
0.0
 10
-692.682
 20
816.830624
 10
-692.659851
 20
816.877927
 10
-692.642466
 20
816.952612
 10
-692.630358
 20
817.052476
 10
-692.623884
 20
817.17457
 10
-692.623237
 20
817.315292
 10
-692.628434
 20
817.470488
 10
-692.639322
 20
817.635577
 10
-692.65558
 20
817.805687
  0
LWPOLYLINE
  5
1B0
100
AcDbEntity
  8
025-DWG
  6
CONTINUOUS
100
AcDbPolyline
 90
        9
 70
   128
 43
0.0
 10
-693.434751
 20
817.796961
 10
-693.390771
 20
817.613788
 10
-693.326527
 20
817.437442
 10
-693.244307
 20
817.274199
 10
-693.147036
 20
817.129865
 10
-693.038173
 20
817.009577
 10
-692.921594
 20
816.917613
 10
-692.801444
 20
816.857247
 10
-692.682
 20
816.830624
  0
LWPOLYLINE
  5
1B1
100
AcDbEntity
  8
025-DWG
  6
CONTINUOUS
100
AcDbPolyline
 90
        9
 70
   128
 43
0.0
 10
-693.434751
 20
817.796961
 10
-693.349996
 20
817.797836
 10
-693.259597
 20
817.798795
 10
-693.164517
 20
817.799827
 10
-693.065772
 20
817.800922
 10
-692.964417
 20
817.802068
 10
-692.861534
 20
817.803253
 10
-692.758221
 20
817.804464
 10
-692.65558
 20
817.805687
  0
LINE
  5
1B2
100
AcDbEntity
  8
025-DWG
  6
CONTINUOUS
100
AcDbLine
 10
-693.434751
 20
817.796961
 30
0.0
 11
-695.355711
 21
817.265285
 31
0.0
  0
LWPOLYLINE
  5
1B3
100
AcDbEntity
  8
025-DWG
  6
CONTINUOUS
100
AcDbPolyline
 90
        5
 70
   128
 43
0.0
 10
-707.029208
 20
825.955353
 10
-706.781614
 20
825.953683
 10
-706.472903
 20
825.95177
 10
-706.418596
 20
825.951449
 10
-706.364095
 20
825.95113
  0
LINE
  5
1B4
100
AcDbEntity
  8
025-DWG
  6
CONTINUOUS
100
AcDbLine
 10
-707.029208
 20
825.955353
 30
0.0
 11
-707.029231
 21
825.955353
 31
0.0
  0
LINE
  5
1B5
100
AcDbEntity
  8
025-DWG
  6
CONTINUOUS
100
AcDbLine
 10
-708.530161
 20
825.955353
 30
0.0
 11
-707.029231
 21
825.955353
 31
0.0
  0
LINE
  5
1B6
100
AcDbEntity
  8
025-DWG
  6
CONTINUOUS
100
AcDbLine
 10
-708.530183
 20
825.955353
 30
0.0
 11
-708.530161
 21
825.955353
 31
0.0
  0
LWPOLYLINE
  5
1B7
100
AcDbEntity
  8
025-DWG
  6
CONTINUOUS
100
AcDbPolyline
 90
        5
 70
   128
 43
0.0
 10
-709.236138
 20
825.959814
 10
-709.177116
 20
825.959447
 10
-709.086484
 20
825.958882
 10
-708.777775
 20
825.956942
 10
-708.530183
 20
825.955353
  0
LINE
  5
1B8
100
AcDbEntity
  8
025-DWG
  6
CONTINUOUS
100
AcDbLine
 10
-690.909564
 20
860.553009
 30
0.0
 11
-690.871867
 21
860.556257
 31
0.0
  0
LWPOLYLINE
  5
1B9
100
AcDbEntity
  8
025-DWG
  6
CONTINUOUS
100
AcDbPolyline
 90
        9
 70
   128
 43
0.0
 10
-689.03092
 20
853.840024
 10
-688.978981
 20
853.813846
 10
-688.910003
 20
853.690419
 10
-688.863975
 20
853.471808
 10
-688.842793
 20
853.167014
 10
-688.847328
 20
852.788586
 10
-688.877395
 20
852.352102
 10
-688.931754
 20
851.875535
 10
-689.008168
 20
851.378505
  0
LWPOLYLINE
  5
1BA
100
AcDbEntity
  8
025-DWG
  6
CONTINUOUS
100
AcDbPolyline
 90
        3
 70
   128
 43
0.0
 10
-687.942764
 20
859.876209
 10
-687.568967
 20
859.70934
 10
-687.145184
 20
859.602165
  0
LWPOLYLINE
  5
1BB
100
AcDbEntity
  8
025-DWG
  6
CONTINUOUS
100
AcDbPolyline
 90
        6
 70
   128
 43
0.0
 10
-684.11429
 20
860.061763
 10
-684.110944
 20
860.060147
 10
-683.973217
 20
859.980311
 10
-683.841261
 20
859.876463
 10
-683.716243
 20
859.746588
 10
-683.601554
 20
859.588607
  0
LINE
  5
1BC
100
AcDbEntity
  8
025-DWG
  6
CONTINUOUS
100
AcDbLine
 10
-684.11429
 20
860.061763
 30
0.0
 11
-684.928603
 21
857.501802
 31
0.0
  0
LINE
  5
1BD
100
AcDbEntity
  8
025-DWG
  6
CONTINUOUS
100
AcDbLine
 10
-686.455087
 20
858.235196
 30
0.0
 11
-688.167525
 21
859.961469
 31
0.0
  0
LWPOLYLINE
  5
1BE
100
AcDbEntity
  8
025-DWG
  6
CONTINUOUS
100
AcDbPolyline
 90
        5
 70
   128
 43
0.0
 10
-686.363629
 20
858.109361
 10
-686.183194
 20
857.952947
 10
-685.812329
 20
857.714141
 10
-685.401809
 20
857.5455
 10
-684.965043
 20
857.452532
  0
LWPOLYLINE
  5
1BF
100
AcDbEntity
  8
025-DWG
  6
CONTINUOUS
100
AcDbPolyline
 90
        5
 70
   128
 43
0.0
 10
-684.965043
 20
857.452532
 10
-685.003242
 20
857.478742
 10
-685.041255
 20
857.501948
 10
-685.079114
 20
857.522106
 10
-685.116713
 20
857.539093
  0
LWPOLYLINE
  5
1C0
100
AcDbEntity
  8
025-DWG
  6
CONTINUOUS
100
AcDbPolyline
 90
        5
 70
   128
 43
0.0
 10
-684.928603
 20
857.501802
 10
-684.937388
 20
857.494144
 10
-684.946389
 20
857.48339
 10
-684.955618
 20
857.469508
 10
-684.965043
 20
857.452532
  0
LWPOLYLINE
  5
1C1
100
AcDbEntity
  8
025-DWG
  6
CONTINUOUS
100
AcDbPolyline
 90
        5
 70
   128
 43
0.0
 10
-686.454683
 20
858.234787
 10
-686.285868
 20
858.078996
 10
-685.930659
 20
857.830904
 10
-685.536913
 20
857.649076
 10
-685.116713
 20
857.539093
  0
LWPOLYLINE
  5
1C2
100
AcDbEntity
  8
025-DWG
  6
CONTINUOUS
100
AcDbPolyline
 90
        7
 70
   128
 43
0.0
 10
-683.601554
 20
859.588607
 10
-683.513792
 20
859.417933
 10
-683.455978
 20
859.247182
 10
-683.421221
 20
859.075959
 10
-683.40621
 20
858.905545
 10
-683.405555
 20
858.813382
 10
-683.409911
 20
858.721558
  0
LINE
  5
1C3
100
AcDbEntity
  8
025-DWG
  6
CONTINUOUS
100
AcDbLine
 10
-684.928603
 20
857.501802
 30
0.0
 11
-685.116713
 21
857.539093
 31
0.0
  0
LINE
  5
1C4
100
AcDbEntity
  8
025-DWG
  6
CONTINUOUS
100
AcDbLine
 10
-685.116713
 20
857.539093
 30
0.0
 11
-687.145184
 21
859.602165
 31
0.0
  0
LWPOLYLINE
  5
1C5
100
AcDbEntity
  8
025-DWG
  6
CONTINUOUS
100
AcDbPolyline
 90
        9
 70
   128
 43
0.0
 10
-686.726548
 20
855.364384
 10
-686.723423
 20
855.356936
 10
-686.660865
 20
855.326597
 10
-686.520703
 20
855.283898
 10
-686.30747
 20
855.230221
 10
-686.028067
 20
855.167301
 10
-685.691531
 20
855.097174
 10
-685.30875
 20
855.022109
 10
-684.892108
 20
854.944534
  0
LWPOLYLINE
  5
1C6
100
AcDbEntity
  8
025-DWG
  6
CONTINUOUS
100
AcDbPolyline
 90
        5
 70
   128
 43
0.0
 10
-685.345936
 20
852.236301
 10
-685.109331
 20
853.097003
 10
-684.968759
 20
853.996123
 10
-684.922627
 20
854.469408
 10
-684.892108
 20
854.944534
  0
LWPOLYLINE
  5
1C7
100
AcDbEntity
  8
025-DWG
  6
CONTINUOUS
100
AcDbPolyline
 90
        9
 70
   128
 43
0.0
 10
-687.372939
 20
854.219249
 10
-687.341457
 20
854.232832
 10
-687.200872
 20
854.198923
 10
-686.988987
 20
854.061389
 10
-686.716989
 20
853.827492
 10
-686.39924
 20
853.509582
 10
-686.052517
 20
853.124445
 10
-685.695125
 20
852.692414
 10
-685.345936
 20
852.236301
  0
LWPOLYLINE
  5
1C8
100
AcDbEntity
  8
025-DWG
  6
CONTINUOUS
100
AcDbPolyline
 90
        9
 70
   128
 43
0.0
 10
-686.702078
 20
855.690469
 10
-686.695692
 20
855.665265
 10
-686.626239
 20
855.599208
 10
-686.482542
 20
855.537262
 10
-686.269
 20
855.481324
 10
-685.992156
 20
855.433108
 10
-685.66049
 20
855.394091
 10
-685.284162
 20
855.365468
 10
-684.874699
 20
855.348116
  0
LINE
  5
1C9
100
AcDbEntity
  8
025-DWG
  6
CONTINUOUS
100
AcDbLine
 10
-684.144465
 20
854.944534
 30
0.0
 11
-684.892108
 21
854.944534
 31
0.0
  0
LWPOLYLINE
  5
1CA
100
AcDbEntity
  8
025-DWG
  6
CONTINUOUS
100
AcDbPolyline
 90
        5
 70
   128
 43
0.0
 10
-684.892108
 20
854.944534
 10
-684.883859
 20
855.045185
 10
-684.87825
 20
855.146003
 10
-684.875208
 20
855.247162
 10
-684.874699
 20
855.348116
  0
LWPOLYLINE
  5
1CB
100
AcDbEntity
  8
025-DWG
  6
CONTINUOUS
100
AcDbPolyline
 90
        6
 70
   128
 43
0.0
 10
-684.144465
 20
854.944534
 10
-684.142122
 20
855.464096
 10
-684.135444
 20
855.925007
 10
-684.125001
 20
856.2836
 10
-684.111978
 20
856.489629
 10
-684.106517
 20
856.521439
  0
LWPOLYLINE
  5
1CC
100
AcDbEntity
  8
025-DWG
  6
CONTINUOUS
100
AcDbPolyline
 90
        3
 70
   128
 43
0.0
 10
-686.733768
 20
855.363526
 10
-686.705082
 20
855.552344
 10
-686.709219
 20
855.68901
  0
LWPOLYLINE
  5
1CD
100
AcDbEntity
  8
025-DWG
  6
CONTINUOUS
100
AcDbPolyline
 90
        6
 70
   128
 43
0.0
 10
-687.374445
 20
854.223008
 10
-687.261237
 20
854.314507
 10
-687.102034
 20
854.489979
 10
-686.926044
 20
854.764082
 10
-686.777511
 20
855.140609
 10
-686.739998
 20
855.366162
  0
LWPOLYLINE
  5
1CE
100
AcDbEntity
  8
025-DWG
  6
CONTINUOUS
100
AcDbPolyline
 90
        5
 70
   128
 43
0.0
 10
-684.874699
 20
855.348116
 10
-684.887377
 20
856.167044
 10
-684.911807
 20
856.8504
 10
-684.946031
 20
857.321325
 10
-684.965043
 20
857.452532
  0
LINE
  5
1CF
100
AcDbEntity
  8
025-DWG
  6
CONTINUOUS
100
AcDbLine
 10
-684.106517
 20
856.521439
 30
0.0
 11
-683.409911
 21
858.721558
 31
0.0
  0
LWPOLYLINE
  5
1D0
100
AcDbEntity
  8
025-DWG
  6
CONTINUOUS
100
AcDbPolyline
 90
        9
 70
   128
 43
0.0
 10
-684.106517
 20
856.521439
 10
-684.121943
 20
856.693734
 10
-684.16701
 20
856.860841
 10
-684.24036
 20
857.017727
 10
-684.339785
 20
857.159667
 10
-684.46229
 20
857.282386
 10
-684.604186
 20
857.382188
 10
-684.7612
 20
857.456068
 10
-684.928603
 20
857.501802
  0
LWPOLYLINE
  5
1D1
100
AcDbEntity
  8
025-DWG
  6
CONTINUOUS
100
AcDbPolyline
 90
        8
 70
   128
 43
0.0
 10
-686.703251
 20
855.690429
 10
-686.706325
 20
855.91391
 10
-686.726324
 20
856.585319
 10
-686.756087
 20
857.217103
 10
-686.793832
 20
857.782154
 10
-686.837451
 20
858.265395
 10
-686.882354
 20
858.64
 10
-686.887132
 20
858.670732
  0
LWPOLYLINE
  5
1D2
100
AcDbEntity
  8
025-DWG
  6
CONTINUOUS
100
AcDbPolyline
 90
        8
 70
   128
 43
0.0
 10
-687.145184
 20
859.602165
 10
-687.288991
 20
859.692626
 10
-687.555771
 20
859.800619
 10
-687.938807
 20
859.922761
 10
-688.425679
 20
860.054899
 10
-689.008193
 20
860.193741
 10
-689.666081
 20
860.333835
 10
-690.871867
 20
860.556257
  0
LWPOLYLINE
  5
1D3
100
AcDbEntity
  8
035-DWG
  6
CONTINUOUS
100
AcDbPolyline
 90
        6
 70
   128
 43
0.0
 10
-689.008168
 20
851.378505
 10
-688.200392
 20
851.304321
 10
-687.369437
 20
851.369788
 10
-686.584124
 20
851.571868
 10
-685.823003
 20
851.920468
 10
-685.345936
 20
852.236301
  0
LWPOLYLINE
  5
1D4
100
AcDbEntity
  8
025-DWG
  6
CONTINUOUS
100
AcDbPolyline
 90
        5
 70
   128
 43
0.0
 10
-689.027437
 20
853.84924
 10
-688.651029
 20
853.80434
 10
-688.172847
 20
853.852716
 10
-687.726085
 20
854.003911
 10
-687.371275
 20
854.225813
  0
LWPOLYLINE
  5
1D5
100
AcDbEntity
  8
025-DWG
  6
CONTINUOUS
100
AcDbPolyline
 90
       10
 70
   128
 43
0.0
 10
-687.928454
 20
859.883028
 10
-687.931879
 20
859.884238
 10
-688.010875
 20
859.912245
 10
-688.183043
 20
859.966345
 10
-688.455998
 20
860.042869
 10
-688.837923
 20
860.139201
 10
-689.31088
 20
860.247193
 10
-689.864676
 20
860.362107
 10
-690.472744
 20
860.476907
 10
-690.90908
 20
860.551656
  0
LWPOLYLINE
  5
1D6
100
AcDbEntity
  8
025-DWG
  6
CONTINUOUS
100
AcDbPolyline
 90
        6
 70
   128
 43
0.0
 10
-684.205318
 20
840.552866
 10
-684.436396
 20
839.943935
 10
-684.697921
 20
839.348077
 10
-684.974154
 20
838.734174
 10
-685.341246
 20
837.895523
 10
-685.345936
 20
837.884479
  0
LWPOLYLINE
  5
1D7
100
AcDbEntity
  8
025-DWG
  6
CONTINUOUS
100
AcDbPolyline
 90
        6
 70
   128
 43
0.0
 10
-685.345936
 20
837.884479
 10
-685.338227
 20
837.891092
 10
-684.940462
 20
838.227584
 10
-684.098313
 20
838.934754
 10
-683.602562
 20
839.386471
 10
-683.328855
 20
839.710534
  0
LWPOLYLINE
  5
1D8
100
AcDbEntity
  8
025-DWG
  6
CONTINUOUS
100
AcDbPolyline
 90
        9
 70
   128
 43
0.0
 10
-683.328855
 20
839.710534
 10
-683.485036
 20
839.756857
 10
-683.635232
 20
839.824979
 10
-683.77533
 20
839.913036
 10
-683.901493
 20
840.018615
 10
-684.010267
 20
840.138825
 10
-684.098673
 20
840.270374
 10
-684.164289
 20
840.409659
 10
-684.205318
 20
840.552866
  0
LWPOLYLINE
  5
1D9
100
AcDbEntity
  8
025-DWG
  6
CONTINUOUS
100
AcDbPolyline
 90
        5
 70
   128
 43
0.0
 10
-684.144465
 20
840.948401
 10
-684.149664
 20
840.848822
 10
-684.161285
 20
840.749689
 10
-684.179728
 20
840.650742
 10
-684.205318
 20
840.552866
  0
LWPOLYLINE
  5
1DA
100
AcDbEntity
  8
025-DWG
  6
CONTINUOUS
100
AcDbPolyline
 90
        5
 70
   128
 43
0.0
 10
-696.200243
 20
825.95113
 10
-696.145362
 20
825.951449
 10
-696.08991
 20
825.95177
 10
-695.758134
 20
825.953683
 10
-695.462155
 20
825.955353
  0
LINE
  5
1DB
100
AcDbEntity
  8
025-DWG
  6
CONTINUOUS
100
AcDbLine
 10
-695.462125
 20
825.955353
 30
0.0
 11
-695.462155
 21
825.955353
 31
0.0
  0
LWPOLYLINE
  5
1DC
100
AcDbEntity
  8
025-DWG
  6
CONTINUOUS
100
AcDbPolyline
 90
        5
 70
   128
 43
0.0
 10
-693.530164
 20
825.955353
 10
-693.234187
 20
825.956942
 10
-692.902412
 20
825.958882
 10
-692.810298
 20
825.959447
 10
-692.751444
 20
825.959814
  0
LINE
  5
1DD
100
AcDbEntity
  8
025-DWG
  6
CONTINUOUS
100
AcDbLine
 10
-693.530192
 20
825.955353
 30
0.0
 11
-693.530164
 21
825.955353
 31
0.0
  0
LINE
  5
1DE
100
AcDbEntity
  8
025-DWG
  6
CONTINUOUS
100
AcDbLine
 10
-695.462125
 20
825.955353
 30
0.0
 11
-693.530192
 21
825.955353
 31
0.0
  0
LINE
  5
1DF
100
AcDbEntity
  8
035-DWG
  6
CONTINUOUS
100
AcDbLine
 10
-685.345936
 20
852.236301
 30
0.0
 11
-685.345936
 21
837.884479
 31
0.0
  0
LINE
  5
1E0
100
AcDbEntity
  8
025-DWG
  6
CONTINUOUS
100
AcDbLine
 10
-684.144465
 20
840.948401
 30
0.0
 11
-684.144465
 21
854.944534
 31
0.0
  0
LWPOLYLINE
  5
1E1
100
AcDbEntity
  8
025-DWG
  6
CONTINUOUS
100
AcDbPolyline
 90
        3
 70
   128
 43
0.0
 10
-683.409911
 20
858.721558
 10
-683.77719
 20
849.835047
 10
-684.144465
 20
840.948401
  0
LWPOLYLINE
  5
1E2
100
AcDbEntity
  8
025-DWG
  6
CONTINUOUS
100
AcDbPolyline
 90
       16
 70
   128
 43
0.0
 10
-706.364095
 20
825.95113
 10
-706.253798
 20
827.01666
 10
-705.925989
 20
828.035758
 10
-705.395012
 20
828.963836
 10
-704.684095
 20
829.760292
 10
-703.824342
 20
830.39028
 10
-702.853368
 20
830.826237
 10
-701.813653
 20
831.049091
 10
-700.750685
 20
831.049091
 10
-699.71097
 20
830.826237
 10
-698.739995
 20
830.39028
 10
-697.880243
 20
829.760292
 10
-697.169326
 20
828.963836
 10
-696.638348
 20
828.035758
 10
-696.31054
 20
827.01666
 10
-696.200243
 20
825.95113
  0
LWPOLYLINE
  5
1E3
100
AcDbEntity
  8
025-DWG
  6
CONTINUOUS
100
AcDbPolyline
 90
       17
 70
   128
 43
0.0
 10
-695.462155
 20
825.955353
 10
-695.573284
 20
827.092521
 10
-695.9024
 20
828.185989
 10
-696.436855
 20
829.193734
 10
-697.156111
 20
830.07703
 10
-698.032527
 20
830.801933
 10
-699.032422
 20
831.340584
 10
-700.117372
 20
831.672284
 10
-701.245682
 20
831.784285
 10
-702.373992
 20
831.672284
 10
-703.458941
 20
831.340584
 10
-704.458837
 20
830.801933
 10
-705.335252
 20
830.07703
 10
-706.054508
 20
829.193734
 10
-706.588963
 20
828.185989
 10
-706.918079
 20
827.092521
 10
-707.029208
 20
825.955353
  0
LWPOLYLINE
  5
1E4
100
AcDbEntity
  8
025-DWG
  6
CONTINUOUS
100
AcDbPolyline
 90
       20
 70
   128
 43
0.0
 10
-708.530183
 20
825.955353
 10
-708.450403
 20
827.073589
 10
-708.214044
 20
828.169301
 10
-707.735209
 20
829.407297
 10
-707.055605
 20
830.546541
 10
-706.20034
 20
831.541735
 10
-705.189579
 20
832.376212
 10
-704.073872
 20
833.009767
 10
-702.868161
 20
833.443073
 10
-701.634213
 20
833.656303
 10
-700.383366
 20
833.657056
 10
-699.166749
 20
833.446034
 10
-698.002758
 20
833.034268
 10
-696.920891
 20
832.429553
 10
-695.952435
 20
831.653808
 10
-695.111252
 20
830.710946
 10
-694.433657
 20
829.641681
 10
-693.929658
 20
828.448234
 10
-693.625515
 20
827.1871
 10
-693.530164
 20
825.955353
  0
LWPOLYLINE
  5
1E5
100
AcDbEntity
  8
025-DWG
  6
CONTINUOUS
100
AcDbPolyline
 90
       20
 70
   128
 43
0.0
 10
-692.751444
 20
825.959814
 10
-692.871199
 20
827.386647
 10
-693.222795
 20
828.773547
 10
-693.800549
 20
830.080847
 10
-694.586345
 20
831.271746
 10
-695.559063
 20
832.306619
 10
-696.69151
 20
833.160055
 10
-697.935344
 20
833.795172
 10
-699.26867
 20
834.208645
 10
-700.63354
 20
834.383104
 10
-702.009253
 20
834.324146
 10
-703.346255
 20
834.033269
 10
-704.617787
 20
833.523094
 10
-705.791618
 20
832.802927
 10
-706.832281
 20
831.898374
 10
-707.720079
 20
830.818651
 10
-708.419589
 20
829.60708
 10
-708.915623
 20
828.275786
 10
-709.186142
 20
826.880552
 10
-709.236138
 20
825.959814
  0
LWPOLYLINE
  5
1E6
100
AcDbEntity
  8
025-DWG
  6
CONTINUOUS
100
AcDbPolyline
 90
        9
 70
   128
 43
0.0
 10
-698.716577
 20
826.763192
 10
-699.053223
 20
827.358737
 10
-699.794117
 20
828.009604
 10
-700.68972
 20
828.374463
 10
-701.63934
 20
828.424684
 10
-702.546405
 20
828.161082
 10
-703.318986
 20
827.608515
 10
-703.870918
 20
826.818588
 10
-703.946176
 20
826.54567
  0
LWPOLYLINE
  5
1E7
100
AcDbEntity
  8
025-DWG
  6
CONTINUOUS
100
AcDbPolyline
 90
       37
 70
   128
 43
0.0
 10
-699.363839
 20
823.91211
 10
-699.736312
 20
823.615265
 10
-700.155294
 20
823.389031
 10
-700.608054
 20
823.240282
 10
-701.080836
 20
823.173538
 10
-701.559274
 20
823.190827
 10
-702.02883
 20
823.291623
 10
-702.475239
 20
823.472864
 10
-702.884936
 20
823.729043
 10
-703.245472
 20
824.052377
 10
-703.545893
 20
824.433039
 10
-703.777071
 20
824.859466
 10
-703.931981
 20
825.318699
 10
-704.005917
 20
825.796785
 10
-703.996632
 20
826.279198
 10
-703.904408
 20
826.75128
 10
-703.732047
 20
827.198687
 10
-703.484787
 20
827.607825
 10
-703.170141
 20
827.966261
 10
-702.797668
 20
828.263106
 10
-702.378686
 20
828.48934
 10
-701.925926
 20
828.638089
 10
-701.453144
 20
828.704833
 10
-700.974706
 20
828.687544
 10
-700.505149
 20
828.586748
 10
-700.05874
 20
828.405507
 10
-699.649044
 20
828.149328
 10
-699.288508
 20
827.825995
 10
-698.988086
 20
827.445332
 10
-698.756909
 20
827.018905
 10
-698.601999
 20
826.559672
 10
-698.528063
 20
826.081586
 10
-698.537348
 20
825.599173
 10
-698.629572
 20
825.127091
 10
-698.801932
 20
824.679684
 10
-699.049192
 20
824.270547
 10
-699.363839
 20
823.91211
  0
LWPOLYLINE
  5
1E8
100
AcDbEntity
  8
025-DWG
  6
CONTINUOUS
100
AcDbPolyline
 90
        9
 70
   128
 43
0.0
 10
-678.032729
 20
860.16769
 10
-678.077051
 20
859.982391
 10
-678.127057
 20
859.803835
 10
-678.180925
 20
859.638521
 10
-678.236697
 20
859.492463
 10
-678.292342
 20
859.370976
 10
-678.345835
 20
859.278482
 10
-678.395231
 20
859.218347
 10
-678.438731
 20
859.192759
  0
LWPOLYLINE
  5
1E9
100
AcDbEntity
  8
025-DWG
  6
CONTINUOUS
100
AcDbPolyline
 90
        5
 70
   128
 43
0.0
 10
-678.438731
 20
859.192759
 10
-677.961674
 20
859.075204
 10
-677.575728
 20
858.962949
 10
-677.326399
 20
858.869686
 10
-677.277241
 20
858.843516
  0
LINE
  5
1EA
100
AcDbEntity
  8
025-DWG
  6
CONTINUOUS
100
AcDbLine
 10
-677.277241
 20
858.843516
 30
0.0
 11
-676.549055
 21
858.383843
 31
0.0
  0
LWPOLYLINE
  5
1EB
100
AcDbEntity
  8
025-DWG
  6
CONTINUOUS
100
AcDbPolyline
 90
        5
 70
   128
 43
0.0
 10
-669.07822
 20
820.465184
 10
-668.445508
 20
820.730705
 10
-667.938068
 20
821.193141
 10
-667.627938
 20
821.784733
 10
-667.537632
 20
822.343239
  0
LWPOLYLINE
  5
1EC
100
AcDbEntity
  8
025-DWG
  6
CONTINUOUS
100
AcDbPolyline
 90
        9
 70
   128
 43
0.0
 10
-669.03274
 20
821.421507
 10
-669.007312
 20
821.257929
 10
-668.99047
 20
821.098912
 10
-668.982684
 20
820.948893
 10
-668.984172
 20
820.812055
 10
-668.994891
 20
820.692214
 10
-669.014543
 20
820.592713
 10
-669.04258
 20
820.516326
 10
-669.07822
 20
820.465184
  0
LINE
  5
1ED
100
AcDbEntity
  8
025-DWG
  6
CONTINUOUS
100
AcDbLine
 10
-663.980284
 20
820.253743
 30
0.0
 11
-667.537632
 21
822.343239
 31
0.0
  0
LINE
  5
1EE
100
AcDbEntity
  8
035-DWG
  6
CONTINUOUS
100
AcDbLine
 10
-663.980284
 20
820.253743
 30
0.0
 11
-663.980284
 21
857.813655
 31
0.0
  0
LWPOLYLINE
  5
1EF
100
AcDbEntity
  8
025-DWG
  6
CONTINUOUS
100
AcDbPolyline
 90
        4
 70
   128
 43
0.0
 10
-669.07822
 20
820.465184
 10
-668.430076
 20
820.084856
 10
-666.847379
 20
819.162692
 10
-665.570677
 20
818.425578
  0
LWPOLYLINE
  5
1F0
100
AcDbEntity
  8
035-DWG
  6
CONTINUOUS
100
AcDbPolyline
 90
        6
 70
   128
 43
0.0
 10
-663.980284
 20
820.253743
 10
-664.07246
 20
819.684384
 10
-664.337351
 20
819.179967
 10
-664.745394
 20
818.780632
 10
-665.302663
 20
818.49678
 10
-665.570677
 20
818.425578
  0
LINE
  5
1F1
100
AcDbEntity
  8
025-DWG
  6
CONTINUOUS
100
AcDbLine
 10
-675.357258
 20
859.357037
 30
0.0
 11
-676.088579
 21
859.817387
 31
0.0
  0
LWPOLYLINE
  5
1F2
100
AcDbEntity
  8
025-DWG
  6
CONTINUOUS
100
AcDbPolyline
 90
        9
 70
   128
 43
0.0
 10
-674.974611
 20
858.681334
 10
-675.013632
 20
858.521394
 10
-675.086791
 20
858.367268
 10
-675.19143
 20
858.224558
 10
-675.323744
 20
858.098453
 10
-675.478923
 20
857.993536
 10
-675.651328
 20
857.913622
 10
-675.83469
 20
857.861615
 10
-676.022343
 20
857.839406
  0
LWPOLYLINE
  5
1F3
100
AcDbEntity
  8
025-DWG
  6
CONTINUOUS
100
AcDbPolyline
 90
        7
 70
   128
 43
0.0
 10
-674.974611
 20
858.681334
 10
-675.041763
 20
858.869653
 10
-675.112354
 20
859.032086
 10
-675.187056
 20
859.168553
 10
-675.264467
 20
859.274631
 10
-675.310578
 20
859.321566
 10
-675.357258
 20
859.357037
  0
LWPOLYLINE
  5
1F4
100
AcDbEntity
  8
035-DWG
  6
CONTINUOUS
100
AcDbPolyline
 90
        4
 70
   128
 43
0.0
 10
-664.479646
 20
858.694867
 10
-664.16621
 20
858.388669
 10
-664.019496
 20
858.083263
 10
-663.980284
 20
857.813655
  0
LWPOLYLINE
  5
1F5
100
AcDbEntity
  8
025-DWG
  6
CONTINUOUS
100
AcDbPolyline
 90
        7
 70
   128
 43
0.0
 10
-669.009139
 20
836.258242
 10
-668.787917
 20
835.844798
 10
-668.580825
 20
835.327377
 10
-668.448417
 20
834.895841
 10
-668.334952
 20
834.411439
 10
-668.274177
 20
834.061171
 10
-668.229367
 20
833.69268
  0
LWPOLYLINE
  5
1F6
100
AcDbEntity
  8
025-DWG
  6
CONTINUOUS
100
AcDbPolyline
 90
        5
 70
   128
 43
0.0
 10
-667.537632
 20
833.69268
 10
-667.583603
 20
834.911122
 10
-667.706967
 20
835.991668
 10
-667.914099
 20
836.958546
 10
-667.957482
 20
837.099933
  0
LINE
  5
1F7
100
AcDbEntity
  8
025-DWG
  6
CONTINUOUS
100
AcDbLine
 10
-667.537632
 20
833.69268
 30
0.0
 11
-668.229367
 21
833.69268
 31
0.0
  0
LWPOLYLINE
  5
1F8
100
AcDbEntity
  8
025-DWG
  6
CONTINUOUS
100
AcDbPolyline
 90
        9
 70
   128
 43
0.0
 10
-667.957482
 20
837.099933
 10
-667.996669
 20
836.939662
 10
-668.070161
 20
836.785248
 10
-668.175274
 20
836.64233
 10
-668.308166
 20
836.516132
 10
-668.463984
 20
836.411262
 10
-668.637033
 20
836.331554
 10
-668.820992
 20
836.279918
 10
-669.009139
 20
836.258242
  0
LINE
  5
1F9
100
AcDbEntity
  8
025-DWG
  6
CONTINUOUS
100
AcDbLine
 10
-668.229367
 20
822.343239
 30
0.0
 11
-667.537632
 21
822.343239
 31
0.0
  0
LWPOLYLINE
  5
1FA
100
AcDbEntity
  8
025-DWG
  6
CONTINUOUS
100
AcDbPolyline
 90
        6
 70
   128
 43
0.0
 10
-668.229367
 20
822.343239
 10
-668.276989
 20
822.052523
 10
-668.414243
 20
821.794803
 10
-668.625451
 20
821.592395
 10
-668.90935
 20
821.452857
 10
-669.03274
 20
821.421507
  0
LINE
  5
1FB
100
AcDbEntity
  8
035-DWG
  6
CONTINUOUS
100
AcDbLine
 10
-668.229367
 20
833.69268
 30
0.0
 11
-668.229367
 21
822.343239
 31
0.0
  0
LINE
  5
1FC
100
AcDbEntity
  8
025-DWG
  6
CONTINUOUS
100
AcDbLine
 10
-667.537632
 20
822.343239
 30
0.0
 11
-667.537632
 21
833.69268
 31
0.0
  0
LWPOLYLINE
  5
1FD
100
AcDbEntity
  8
025-DWG
  6
CONTINUOUS
100
AcDbPolyline
 90
        4
 70
   128
 43
0.0
 10
-676.022343
 20
857.839406
 10
-675.672214
 20
856.762634
 10
-674.271723
 20
852.454787
 10
-669.009139
 20
836.258242
  0
LINE
  5
1FE
100
AcDbEntity
  8
025-DWG
  6
CONTINUOUS
100
AcDbLine
 10
-667.957482
 20
837.099933
 30
0.0
 11
-674.974611
 21
858.681334
 31
0.0
  0
LWPOLYLINE
  5
1FF
100
AcDbEntity
  8
025-DWG
  6
CONTINUOUS
100
AcDbPolyline
 90
        7
 70
   128
 43
0.0
 10
-676.549055
 20
858.383843
 10
-676.439539
 20
858.320523
 10
-676.329517
 20
858.23052
 10
-676.218175
 20
858.112904
 10
-676.107868
 20
857.96963
 10
-676.064909
 20
857.906374
 10
-676.022343
 20
857.839406
  0
LWPOLYLINE
  5
200
100
AcDbEntity
  8
025-DWG
  6
CONTINUOUS
100
AcDbPolyline
 90
        9
 70
   128
 43
0.0
 10
-675.357258
 20
859.357037
 10
-675.386834
 20
859.140268
 10
-675.462306
 20
858.933987
 10
-675.58002
 20
858.748175
 10
-675.734283
 20
858.591821
 10
-675.91763
 20
858.47249
 10
-676.12119
 20
858.395957
 10
-676.335115
 20
858.365924
 10
-676.549055
 20
858.383843
  0
LWPOLYLINE
  5
201
100
AcDbEntity
  8
025-DWG
  6
CONTINUOUS
100
AcDbPolyline
 90
        9
 70
   128
 43
0.0
 10
-676.088579
 20
859.817387
 10
-676.11803
 20
859.600978
 10
-676.19322
 20
859.395002
 10
-676.310523
 20
859.20939
 10
-676.464285
 20
859.053091
 10
-676.647091
 20
858.93364
 10
-676.850129
 20
858.856796
 10
-677.06361
 20
858.826264
 10
-677.277241
 20
858.843516
  0
LWPOLYLINE
  5
202
100
AcDbEntity
  8
025-DWG
  6
CONTINUOUS
100
AcDbPolyline
 90
        5
 70
   128
 43
0.0
 10
-676.088579
 20
859.817387
 10
-676.399428
 20
859.898657
 10
-676.949816
 20
860.002712
 10
-677.682362
 20
860.118091
 10
-678.032729
 20
860.16769
  0
LWPOLYLINE
  5
203
100
AcDbEntity
  8
025-DWG
  6
CONTINUOUS
100
AcDbPolyline
 90
        5
 70
   128
 43
0.0
 10
-682.473602
 20
857.87928
 10
-682.521477
 20
858.496981
 10
-682.742222
 20
859.125967
 10
-682.824094
 20
859.269024
 10
-682.920604
 20
859.410576
  0
LWPOLYLINE
  5
204
100
AcDbEntity
  8
025-DWG
  6
CONTINUOUS
100
AcDbPolyline
 90
        4
 70
   128
 43
0.0
 10
-683.207296
 20
840.106077
 10
-683.16312
 20
841.176248
 10
-682.986415
 20
845.456913
 10
-682.473602
 20
857.87928
  0
LWPOLYLINE
  5
205
100
AcDbEntity
  8
025-DWG
  6
CONTINUOUS
100
AcDbPolyline
 90
        5
 70
   128
 43
0.0
 10
-682.920604
 20
859.410576
 10
-681.288795
 20
859.061222
 10
-679.662756
 20
858.699439
 10
-677.838478
 20
858.277166
 10
-676.022343
 20
857.839406
  0
LWPOLYLINE
  5
206
100
AcDbEntity
  8
025-DWG
  6
CONTINUOUS
100
AcDbPolyline
 90
        9
 70
   128
 43
0.0
 10
-678.032623
 20
867.002121
 10
-677.994726
 20
866.990824
 10
-677.966507
 20
866.940383
 10
-677.94911
 20
866.852847
 10
-677.943241
 20
866.731766
 10
-677.949139
 20
866.582055
 10
-677.966564
 20
866.409787
 10
-677.99481
 20
866.221953
 10
-678.032729
 20
866.026175
  0
LWPOLYLINE
  5
207
100
AcDbEntity
  8
035-DWG
  6
CONTINUOUS
100
AcDbPolyline
 90
        7
 70
   128
 43
0.0
 10
-678.017428
 20
867.0016
 10
-677.912401
 20
866.978816
 10
-677.513701
 20
866.881459
 10
-677.15962
 20
866.782876
 10
-676.850568
 20
866.679814
 10
-676.665311
 20
866.600926
 10
-676.532923
 20
866.524459
  0
LWPOLYLINE
  5
208
100
AcDbEntity
  8
025-DWG
  6
CONTINUOUS
100
AcDbPolyline
 90
        7
 70
   128
 43
0.0
 10
-676.531608
 20
866.526859
 10
-676.413094
 20
866.437893
 10
-676.297314
 20
866.315843
 10
-676.204587
 20
866.174804
 10
-676.137692
 20
866.019003
 10
-676.098632
 20
865.853107
 10
-676.088579
 20
865.682086
  0
LWPOLYLINE
  5
209
100
AcDbEntity
  8
025-DWG
  6
CONTINUOUS
100
AcDbPolyline
 90
        5
 70
   128
 43
0.0
 10
-678.032729
 20
866.026175
 10
-677.244122
 20
865.91227
 10
-676.602982
 20
865.802992
 10
-676.183336
 20
865.711462
 10
-676.088579
 20
865.682086
  0
ARC
  5
20A
100
AcDbEntity
  8
035-DWG
100
AcDbCircle
 10
-517.319999
 20
971.969091
 30
0.0
 40
3.3
100
AcDbArc
 50
0.0
 51
90.0
  0
ARC
  5
20B
100
AcDbEntity
  8
035-DWG
100
AcDbCircle
 10
-521.519999
 20
979.269091
 30
0.0
 40
2.8
100
AcDbArc
 50
270.0
 51
360.0
  0
ARC
  5
20C
100
AcDbEntity
  8
035-DWG
100
AcDbCircle
 10
-528.519999
 20
979.069091
 30
0.0
 40
3.8
100
AcDbArc
 50
237.363102
 51
302.636898
  0
ARC
  5
20D
100
AcDbEntity
  8
035-DWG
100
AcDbCircle
 10
-524.421219
 20
972.669091
 30
0.0
 40
3.8
100
AcDbArc
 50
90.0
 51
122.636898
  0
ARC
  5
20E
100
AcDbEntity
  8
035-DWG
100
AcDbCircle
 10
-532.61878
 20
972.669091
 30
0.0
 40
3.8
100
AcDbArc
 50
57.363102
 51
90.0
  0
ARC
  5
20F
100
AcDbEntity
  8
035-DWG
100
AcDbCircle
 10
-533.019999
 20
974.469091
 30
0.0
 40
2.0
100
AcDbArc
 50
90.0
 51
156.421822
  0
LINE
  5
210
100
AcDbEntity
  8
035-DWG
100
AcDbLine
 10
-514.019999
 20
971.969091
 30
0.0
 11
-514.019999
 21
960.269091
 31
0.0
  0
LINE
  5
211
100
AcDbEntity
  8
025-DWG
100
AcDbLine
 10
-519.219999
 20
1128.286335
 30
0.0
 11
-696.277542
 21
1128.286335
 31
0.0
  0
LINE
  5
212
100
AcDbEntity
  8
025-DWG
100
AcDbLine
 10
-519.219999
 20
1123.286335
 30
0.0
 11
-673.570666
 21
1123.286335
 31
0.0
  0
LINE
  5
213
100
AcDbEntity
  8
025-DWG
  6
CONTINUOUS
100
AcDbLine
 10
-777.430513
 20
1114.65056
 30
0.0
 11
-784.447891
 21
1093.068625
 31
0.0
  0
LWPOLYLINE
  5
214
100
AcDbEntity
  8
025-DWG
  6
CONTINUOUS
100
AcDbPolyline
 90
        4
 70
   128
 43
0.0
 10
-783.396268
 20
1092.226932
 10
-783.046143
 20
1093.304796
 10
-781.645666
 20
1097.615856
 10
-776.3828
 20
1113.80863
  0
LINE
  5
215
100
AcDbEntity
  8
035-DWG
  6
CONTINUOUS
100
AcDbLine
 10
-767.059428
 20
1093.85293
 30
0.0
 11
-767.059428
 21
1108.205385
 31
0.0
  0
LINE
  5
216
100
AcDbEntity
  8
035-DWG
  6
CONTINUOUS
100
AcDbLine
 10
-788.42508
 20
1076.222827
 30
0.0
 11
-788.42508
 21
1113.782739
 31
0.0
  0
LWPOLYLINE
  5
217
100
AcDbEntity
  8
025-DWG
  6
CONTINUOUS
100
AcDbPolyline
 90
        5
 70
   128
 43
0.0
 10
-769.076503
 20
1095.678971
 10
-772.692531
 20
1094.892646
 10
-776.283985
 20
1094.05283
 10
-779.853384
 20
1093.162652
 10
-783.396268
 20
1092.226932
  0
LWPOLYLINE
  5
218
100
AcDbEntity
  8
025-DWG
  6
CONTINUOUS
100
AcDbPolyline
 90
        6
 70
   128
 43
0.0
 10
-767.059428
 20
1093.85293
 10
-767.064118
 20
1093.863973
 10
-767.431214
 20
1094.702626
 10
-767.707446
 20
1095.316522
 10
-767.96897
 20
1095.912374
 10
-768.200047
 20
1096.521303
  0
LWPOLYLINE
  5
219
100
AcDbEntity
  8
025-DWG
  6
CONTINUOUS
100
AcDbPolyline
 90
        6
 70
   128
 43
0.0
 10
-769.076503
 20
1095.678971
 10
-768.802799
 20
1095.35491
 10
-768.307052
 20
1094.903197
 10
-767.464912
 20
1094.19604
 10
-767.067137
 20
1093.859542
 10
-767.059428
 20
1093.85293
  0
LWPOLYLINE
  5
21A
100
AcDbEntity
  8
025-DWG
  6
CONTINUOUS
100
AcDbPolyline
 90
        5
 70
   128
 43
0.0
 10
-669.062833
 20
1092.227326
 10
-672.597129
 20
1093.160966
 10
-676.161094
 20
1094.050056
 10
-679.757601
 20
1094.891286
 10
-683.382549
 20
1095.679618
  0
LINE
  5
21B
100
AcDbEntity
  8
025-DWG
  6
CONTINUOUS
100
AcDbLine
 10
-668.011175
 20
1093.069017
 30
0.0
 11
-675.028305
 21
1114.650418
 31
0.0
  0
LWPOLYLINE
  5
21C
100
AcDbEntity
  8
025-DWG
  6
CONTINUOUS
100
AcDbPolyline
 90
        4
 70
   128
 43
0.0
 10
-676.076037
 20
1113.80849
 10
-675.725907
 20
1112.731718
 10
-674.325417
 20
1108.423871
 10
-669.062833
 20
1092.227326
  0
LINE
  5
21D
100
AcDbEntity
  8
035-DWG
  6
CONTINUOUS
100
AcDbLine
 10
-664.033977
 20
1076.222827
 30
0.0
 11
-664.033977
 21
1113.782739
 31
0.0
  0
LINE
  5
21E
100
AcDbEntity
  8
035-DWG
  6
CONTINUOUS
100
AcDbLine
 10
-685.39963
 20
1108.205385
 30
0.0
 11
-685.39963
 21
1093.853563
 31
0.0
  0
LWPOLYLINE
  5
21F
100
AcDbEntity
  8
025-DWG
  6
CONTINUOUS
100
AcDbPolyline
 90
        6
 70
   128
 43
0.0
 10
-685.39963
 20
1093.853563
 10
-685.39192
 20
1093.860176
 10
-684.994155
 20
1094.196669
 10
-684.152007
 20
1094.903838
 10
-683.656256
 20
1095.355555
 10
-683.382549
 20
1095.679618
  0
LWPOLYLINE
  5
220
100
AcDbEntity
  8
025-DWG
  6
CONTINUOUS
100
AcDbPolyline
 90
        6
 70
   128
 43
0.0
 10
-684.259011
 20
1096.52195
 10
-684.49009
 20
1095.913019
 10
-684.751615
 20
1095.317161
 10
-685.027848
 20
1094.703258
 10
-685.39494
 20
1093.864607
 10
-685.39963
 20
1093.853563
  0
LWPOLYLINE
  5
221
100
AcDbEntity
  8
025-DWG
  6
CONTINUOUS
100
AcDbPolyline
 90
        6
 70
   128
 43
0.0
 10
-709.403406
 20
1072.367805
 10
-717.409471
 20
1072.025113
 10
-725.897586
 20
1071.895562
 10
-732.502322
 20
1071.961039
 10
-739.097356
 20
1072.171584
 10
-743.055652
 20
1072.367805
  0
LWPOLYLINE
  5
222
100
AcDbEntity
  8
025-DWG
  6
CONTINUOUS
100
AcDbPolyline
 90
        6
 70
   128
 43
0.0
 10
-743.04244
 20
1071.385447
 10
-735.367542
 20
1071.050772
 10
-726.516153
 20
1070.910709
 10
-721.958211
 20
1070.941208
 10
-717.403419
 20
1071.041362
 10
-709.416618
 20
1071.385447
  0
LWPOLYLINE
  5
223
100
AcDbEntity
  8
035-DWG
  6
CONTINUOUS
100
AcDbPolyline
 90
       19
 70
   128
 43
0.0
 10
-665.624371
 20
1074.394662
 10
-671.907718
 20
1073.202696
 10
-678.284606
 20
1072.129385
 10
-684.740716
 20
1071.181035
 10
-691.261731
 20
1070.363953
 10
-698.026931
 20
1069.665942
 10
-704.850146
 20
1069.114321
 10
-711.712787
 20
1068.712437
 10
-718.596267
 20
1068.463635
 10
-725.350627
 20
1068.3706
 10
-732.112638
 20
1068.426079
 10
-738.864106
 20
1068.629189
 10
-745.58684
 20
1068.979045
 10
-752.473673
 20
1069.491835
 10
-759.317567
 20
1070.155663
 10
-766.100612
 20
1070.965391
 10
-772.804899
 20
1071.91588
 10
-779.87339
 20
1073.081685
 10
-786.834686
 20
1074.394662
  0
LWPOLYLINE
  5
224
100
AcDbEntity
  8
035-DWG
  6
CONTINUOUS
100
AcDbPolyline
 90
        6
 70
   128
 43
0.0
 10
-784.175997
 20
1089.661469
 10
-780.248015
 20
1090.735648
 10
-776.282112
 20
1091.755293
 10
-772.274103
 20
1092.715575
 10
-768.229529
 20
1093.609122
 10
-767.059428
 20
1093.85293
  0
LWPOLYLINE
  5
225
100
AcDbEntity
  8
025-DWG
  6
CONTINUOUS
100
AcDbPolyline
 90
        5
 70
   128
 43
0.0
 10
-783.327144
 20
1076.434269
 10
-776.990537
 20
1075.267722
 10
-771.714711
 20
1074.403985
 10
-766.387695
 20
1073.630082
 10
-759.723364
 20
1072.799709
  0
LWPOLYLINE
  5
226
100
AcDbEntity
  8
025-DWG
  6
CONTINUOUS
100
AcDbPolyline
 90
        5
 70
   128
 43
0.0
 10
-759.749784
 20
1073.774771
 10
-764.755339
 20
1074.380527
 10
-770.696278
 20
1075.210732
 10
-776.588494
 20
1076.154355
 10
-783.372624
 20
1077.390591
  0
LINE
  5
227
100
AcDbEntity
  8
025-DWG
  6
CONTINUOUS
100
AcDbLine
 10
-784.867731
 20
1089.661469
 30
0.0
 11
-784.867731
 21
1078.312323
 31
0.0
  0
LINE
  5
228
100
AcDbEntity
  8
035-DWG
  6
CONTINUOUS
100
AcDbLine
 10
-784.175997
 20
1078.312323
 30
0.0
 11
-784.175997
 21
1089.661469
 31
0.0
  0
LWPOLYLINE
  5
229
100
AcDbEntity
  8
035-DWG
  6
CONTINUOUS
100
AcDbPolyline
 90
        5
 70
   128
 43
0.0
 10
-786.834686
 20
1074.394662
 10
-787.518555
 20
1074.656565
 10
-788.07471
 20
1075.158053
 10
-788.364001
 20
1075.756749
 10
-788.42508
 20
1076.222827
  0
LINE
  5
22A
100
AcDbEntity
  8
025-DWG
  6
CONTINUOUS
100
AcDbLine
 10
-784.867731
 20
1078.312323
 30
0.0
 11
-788.42508
 21
1076.222827
 31
0.0
  0
LWPOLYLINE
  5
22B
100
AcDbEntity
  8
025-DWG
  6
CONTINUOUS
100
AcDbPolyline
 90
        5
 70
   128
 43
0.0
 10
-783.372624
 20
1077.390591
 10
-783.711025
 20
1077.517224
 10
-783.987561
 20
1077.759242
 10
-784.13899
 20
1078.055102
 10
-784.175997
 20
1078.312323
  0
LWPOLYLINE
  5
22C
100
AcDbEntity
  8
025-DWG
  6
CONTINUOUS
100
AcDbPolyline
 90
        9
 70
   128
 43
0.0
 10
-783.372624
 20
1077.390591
 10
-783.398052
 20
1077.227013
 10
-783.414894
 20
1077.067996
 10
-783.42268
 20
1076.917977
 10
-783.421192
 20
1076.781139
 10
-783.410473
 20
1076.661298
 10
-783.390821
 20
1076.561797
 10
-783.362784
 20
1076.48541
 10
-783.327144
 20
1076.434269
  0
LINE
  5
22D
100
AcDbEntity
  8
025-DWG
  6
CONTINUOUS
100
AcDbLine
 10
-784.175997
 20
1078.312323
 30
0.0
 11
-784.867731
 21
1078.312323
 31
0.0
  0
LWPOLYLINE
  5
22E
100
AcDbEntity
  8
025-DWG
  6
CONTINUOUS
100
AcDbPolyline
 90
        5
 70
   128
 43
0.0
 10
-784.867731
 20
1078.312323
 10
-784.750894
 20
1077.676266
 10
-784.430112
 20
1077.115467
 10
-783.940888
 20
1076.687888
 10
-783.327144
 20
1076.434269
  0
LWPOLYLINE
  5
22F
100
AcDbEntity
  8
025-DWG
  6
CONTINUOUS
100
AcDbPolyline
 90
        4
 70
   128
 43
0.0
 10
-786.834686
 20
1074.394662
 10
-786.30938
 20
1074.697222
 10
-784.726601
 20
1075.615026
 10
-783.327144
 20
1076.434269
  0
LWPOLYLINE
  5
230
100
AcDbEntity
  8
025-DWG
  6
CONTINUOUS
100
AcDbPolyline
 90
        9
 70
   128
 43
0.0
 10
-783.396268
 20
1092.226932
 10
-783.58441
 20
1092.248613
 10
-783.768364
 20
1092.300251
 10
-783.941408
 20
1092.379962
 10
-784.09722
 20
1092.484831
 10
-784.230107
 20
1092.611029
 10
-784.335216
 20
1092.753945
 10
-784.408706
 20
1092.908357
 10
-784.447891
 20
1093.068625
  0
LINE
  5
231
100
AcDbEntity
  8
025-DWG
  6
CONTINUOUS
100
AcDbLine
 10
-784.175997
 20
1089.661469
 30
0.0
 11
-784.867731
 21
1089.661469
 31
0.0
  0
LWPOLYLINE
  5
232
100
AcDbEntity
  8
025-DWG
  6
CONTINUOUS
100
AcDbPolyline
 90
        7
 70
   128
 43
0.0
 10
-784.447891
 20
1093.068625
 10
-784.592046
 20
1092.528821
 10
-784.716527
 20
1091.841112
 10
-784.796582
 20
1091.174262
 10
-784.850037
 20
1090.417156
 10
-784.86317
 20
1090.043938
 10
-784.867731
 20
1089.661469
  0
LWPOLYLINE
  5
233
100
AcDbEntity
  8
025-DWG
  6
CONTINUOUS
100
AcDbPolyline
 90
        7
 70
   128
 43
0.0
 10
-784.175997
 20
1089.661469
 10
-784.125658
 20
1090.066584
 10
-784.052482
 20
1090.467757
 10
-783.931429
 20
1090.956359
 10
-783.7837
 20
1091.410874
 10
-783.600144
 20
1091.85047
 10
-783.396268
 20
1092.226932
  0
LWPOLYLINE
  5
234
100
AcDbEntity
  8
025-DWG
  6
CONTINUOUS
100
AcDbPolyline
 90
       20
 70
   128
 43
0.0
 10
-743.169226
 20
1081.928898
 10
-743.290221
 20
1083.355731
 10
-743.645323
 20
1084.742631
 10
-744.228515
 20
1086.049931
 10
-745.021017
 20
1087.24083
 10
-746.000952
 20
1088.275704
 10
-747.140305
 20
1089.129139
 10
-748.389839
 20
1089.764256
 10
-749.727143
 20
1090.177729
 10
-751.093741
 20
1090.352188
 10
-752.468871
 20
1090.29323
 10
-753.803012
 20
1090.002353
 10
-755.069784
 20
1089.492178
 10
-756.237417
 20
1088.772011
 10
-757.271169
 20
1087.867458
 10
-758.152004
 20
1086.787735
 10
-758.845341
 20
1085.576165
 10
-759.336638
 20
1084.24487
 10
-759.604435
 20
1082.849637
 10
-759.653919
 20
1081.928898
  0
LWPOLYLINE
  5
235
100
AcDbEntity
  8
025-DWG
  6
CONTINUOUS
100
AcDbPolyline
 90
        3
 70
   128
 43
0.0
 10
-759.723364
 20
1072.799709
 10
-758.180296
 20
1072.372214
 10
-757.79431
 20
1072.266928
  0
LINE
  5
236
100
AcDbEntity
  8
025-DWG
  6
CONTINUOUS
100
AcDbLine
 10
-757.049653
 20
1073.234369
 30
0.0
 11
-758.970612
 21
1073.766045
 31
0.0
  0
LINE
  5
237
100
AcDbEntity
  8
025-DWG
  6
CONTINUOUS
100
AcDbLine
 10
-758.970612
 20
1073.766045
 30
0.0
 11
-758.875172
 21
1081.924437
 31
0.0
  0
LWPOLYLINE
  5
238
100
AcDbEntity
  8
025-DWG
  6
CONTINUOUS
100
AcDbPolyline
 90
        5
 70
   128
 43
0.0
 10
-759.653919
 20
1081.928898
 10
-759.595065
 20
1081.928531
 10
-759.502952
 20
1081.927966
 10
-759.171177
 20
1081.926026
 10
-758.8752
 20
1081.924437
  0
LWPOLYLINE
  5
239
100
AcDbEntity
  8
025-DWG
  6
CONTINUOUS
100
AcDbPolyline
 90
        3
 70
   128
 43
0.0
 10
-756.31505
 20
1072.00112
 10
-754.340496
 20
1071.800593
 10
-745.878262
 20
1071.130476
  0
LWPOLYLINE
  5
23A
100
AcDbEntity
  8
025-DWG
  6
CONTINUOUS
100
AcDbPolyline
 90
        3
 70
   128
 43
0.0
 10
-745.921162
 20
1072.111943
 10
-751.123282
 20
1072.487421
 10
-756.314622
 20
1072.978083
  0
LWPOLYLINE
  5
23B
100
AcDbEntity
  8
025-DWG
  6
CONTINUOUS
100
AcDbPolyline
 90
       20
 70
   128
 43
0.0
 10
-758.8752
 20
1081.924437
 10
-758.796319
 20
1083.042673
 10
-758.562547
 20
1084.138385
 10
-758.088708
 20
1085.376381
 10
-757.415594
 20
1086.515625
 10
-756.567509
 20
1087.510819
 10
-755.563832
 20
1088.345296
 10
-754.454152
 20
1088.978851
 10
-753.252892
 20
1089.412157
 10
-752.02122
 20
1089.625387
 10
-750.770388
 20
1089.62614
 10
-749.551505
 20
1089.415118
 10
-748.383287
 20
1089.003353
 10
-747.29563
 20
1088.398637
 10
-746.320494
 20
1087.622892
 10
-745.472337
 20
1086.68003
 10
-744.788331
 20
1085.610765
 10
-744.279108
 20
1084.417318
 10
-743.971612
 20
1083.156184
 10
-743.875181
 20
1081.924437
  0
LWPOLYLINE
  5
23C
100
AcDbEntity
  8
025-DWG
  6
CONTINUOUS
100
AcDbPolyline
 90
       17
 70
   128
 43
0.0
 10
-745.376156
 20
1081.924437
 10
-745.487285
 20
1083.061605
 10
-745.8164
 20
1084.155073
 10
-746.350856
 20
1085.162818
 10
-747.070111
 20
1086.046114
 10
-747.946527
 20
1086.771017
 10
-748.946422
 20
1087.309668
 10
-750.031372
 20
1087.641368
 10
-751.159682
 20
1087.753369
 10
-752.287992
 20
1087.641368
 10
-753.372942
 20
1087.309668
 10
-754.372837
 20
1086.771017
 10
-755.249253
 20
1086.046114
 10
-755.968509
 20
1085.162818
 10
-756.502964
 20
1084.155073
 10
-756.83208
 20
1083.061605
 10
-756.943209
 20
1081.924437
  0
LWPOLYLINE
  5
23D
100
AcDbEntity
  8
025-DWG
  6
CONTINUOUS
100
AcDbPolyline
 90
       16
 70
   128
 43
0.0
 10
-756.205121
 20
1081.920215
 10
-756.094824
 20
1082.985745
 10
-755.767016
 20
1084.004842
 10
-755.236038
 20
1084.93292
 10
-754.525121
 20
1085.729376
 10
-753.665368
 20
1086.359364
 10
-752.694394
 20
1086.795321
 10
-751.654679
 20
1087.018175
 10
-750.591711
 20
1087.018175
 10
-749.551996
 20
1086.795321
 10
-748.581022
 20
1086.359364
 10
-747.721269
 20
1085.729376
 10
-747.010352
 20
1084.93292
 10
-746.479374
 20
1084.004842
 10
-746.151566
 20
1082.985745
 10
-746.041269
 20
1081.920215
  0
LWPOLYLINE
  5
23E
100
AcDbEntity
  8
025-DWG
  6
CONTINUOUS
100
AcDbPolyline
 90
        9
 70
   128
 43
0.0
 10
-745.921162
 20
1072.111943
 10
-745.929645
 20
1071.939678
 10
-745.934134
 20
1071.772583
 10
-745.934497
 20
1071.615671
 10
-745.93072
 20
1071.473652
 10
-745.922919
 20
1071.350788
 10
-745.911326
 20
1071.250765
 10
-745.89629
 20
1071.176586
 10
-745.878262
 20
1071.130476
  0
LWPOLYLINE
  5
23F
100
AcDbEntity
  8
025-DWG
  6
CONTINUOUS
100
AcDbPolyline
 90
        9
 70
   128
 43
0.0
 10
-743.04244
 20
1071.385447
 10
-743.053812
 20
1071.431125
 10
-743.062731
 20
1071.505057
 10
-743.068928
 20
1071.605013
 10
-743.072216
 20
1071.727978
 10
-743.072495
 20
1071.870244
 10
-743.069758
 20
1072.027517
 10
-743.064086
 20
1072.195056
 10
-743.055652
 20
1072.367805
  0
LWPOLYLINE
  5
240
100
AcDbEntity
  8
025-DWG
  6
CONTINUOUS
100
AcDbPolyline
 90
        9
 70
   128
 43
0.0
 10
-743.76214
 20
1072.359078
 10
-743.738697
 20
1072.185935
 10
-743.691857
 20
1072.018346
 10
-743.623051
 20
1071.861427
 10
-743.534378
 20
1071.719972
 10
-743.428548
 20
1071.598298
 10
-743.308791
 20
1071.500123
 10
-743.178765
 20
1071.428443
 10
-743.04244
 20
1071.385447
  0
LWPOLYLINE
  5
241
100
AcDbEntity
  8
025-DWG
  6
CONTINUOUS
100
AcDbPolyline
 90
        9
 70
   128
 43
0.0
 10
-745.256195
 20
1072.130074
 10
-745.233282
 20
1071.957472
 10
-745.187119
 20
1071.790369
 10
-745.119107
 20
1071.63383
 10
-745.031308
 20
1071.492604
 10
-744.926384
 20
1071.370971
 10
-744.807517
 20
1071.27262
 10
-744.678311
 20
1071.200533
 10
-744.542684
 20
1071.156896
  0
LWPOLYLINE
  5
242
100
AcDbEntity
  8
025-DWG
  6
CONTINUOUS
100
AcDbPolyline
 90
        3
 70
   128
 43
0.0
 10
-744.542684
 20
1071.156896
 10
-743.319112
 20
1071.342587
 10
-743.04244
 20
1071.385447
  0
LWPOLYLINE
  5
243
100
AcDbEntity
  8
025-DWG
  6
CONTINUOUS
100
AcDbPolyline
 90
        7
 70
   128
 43
0.0
 10
-744.542684
 20
1071.156896
 10
-744.763846
 20
1071.131684
 10
-745.029681
 20
1071.116176
 10
-745.317961
 20
1071.111796
 10
-745.63692
 20
1071.118506
 10
-745.756705
 20
1071.123745
 10
-745.878262
 20
1071.130476
  0
LINE
  5
244
100
AcDbEntity
  8
025-DWG
  6
CONTINUOUS
100
AcDbLine
 10
-743.055652
 20
1072.367805
 30
0.0
 11
-743.169226
 21
1081.928898
 31
0.0
  0
LINE
  5
245
100
AcDbEntity
  8
025-DWG
  6
CONTINUOUS
100
AcDbLine
 10
-743.875203
 20
1081.924437
 30
0.0
 11
-743.76214
 21
1072.359078
 31
0.0
  0
LINE
  5
246
100
AcDbEntity
  8
025-DWG
  6
CONTINUOUS
100
AcDbLine
 10
-745.256195
 20
1072.130074
 30
0.0
 11
-745.376132
 21
1081.924437
 31
0.0
  0
LINE
  5
247
100
AcDbEntity
  8
025-DWG
  6
CONTINUOUS
100
AcDbLine
 10
-746.041269
 20
1081.920215
 30
0.0
 11
-745.921162
 21
1072.111943
 31
0.0
  0
LWPOLYLINE
  5
248
100
AcDbEntity
  8
025-DWG
  6
CONTINUOUS
100
AcDbPolyline
 90
        9
 70
   128
 43
0.0
 10
-743.76214
 20
1072.359078
 10
-743.694617
 20
1072.359953
 10
-743.619383
 20
1072.360912
 10
-743.537241
 20
1072.361945
 10
-743.449069
 20
1072.36304
 10
-743.355807
 20
1072.364186
 10
-743.258451
 20
1072.36537
 10
-743.158042
 20
1072.366581
 10
-743.055652
 20
1072.367805
  0
LINE
  5
249
100
AcDbEntity
  8
025-DWG
  6
CONTINUOUS
100
AcDbLine
 10
-743.76214
 20
1072.359078
 30
0.0
 11
-745.256195
 21
1072.130074
 31
0.0
  0
LWPOLYLINE
  5
24A
100
AcDbEntity
  8
025-DWG
  6
CONTINUOUS
100
AcDbPolyline
 90
        6
 70
   128
 43
0.0
 10
-745.921162
 20
1072.111943
 10
-745.770241
 20
1072.096046
 10
-745.62118
 20
1072.089629
 10
-745.486476
 20
1072.09326
 10
-745.362304
 20
1072.106943
 10
-745.256195
 20
1072.130074
  0
LWPOLYLINE
  5
24B
100
AcDbEntity
  8
025-DWG
  6
CONTINUOUS
100
AcDbPolyline
 90
        5
 70
   128
 43
0.0
 10
-743.875181
 20
1081.924437
 10
-743.627588
 20
1081.926026
 10
-743.31888
 20
1081.927966
 10
-743.228248
 20
1081.928531
 10
-743.169226
 20
1081.928898
  0
LINE
  5
24C
100
AcDbEntity
  8
025-DWG
  6
CONTINUOUS
100
AcDbLine
 10
-743.875181
 20
1081.924437
 30
0.0
 11
-743.875203
 21
1081.924437
 31
0.0
  0
LINE
  5
24D
100
AcDbEntity
  8
025-DWG
  6
CONTINUOUS
100
AcDbLine
 10
-745.376132
 20
1081.924437
 30
0.0
 11
-745.376156
 21
1081.924437
 31
0.0
  0
LINE
  5
24E
100
AcDbEntity
  8
025-DWG
  6
CONTINUOUS
100
AcDbLine
 10
-743.875203
 20
1081.924437
 30
0.0
 11
-745.376132
 21
1081.924437
 31
0.0
  0
LWPOLYLINE
  5
24F
100
AcDbEntity
  8
025-DWG
  6
CONTINUOUS
100
AcDbPolyline
 90
        5
 70
   128
 43
0.0
 10
-746.041269
 20
1081.920215
 10
-745.986767
 20
1081.920533
 10
-745.932461
 20
1081.920854
 10
-745.62375
 20
1081.922767
 10
-745.376156
 20
1081.924437
  0
LWPOLYLINE
  5
250
100
AcDbEntity
  8
025-DWG
  6
CONTINUOUS
100
AcDbPolyline
 90
        9
 70
   128
 43
0.0
 10
-756.31505
 20
1072.00112
 10
-756.330899
 20
1072.047683
 10
-756.342552
 20
1072.121963
 10
-756.349661
 20
1072.221747
 10
-756.352016
 20
1072.344062
 10
-756.349546
 20
1072.485264
 10
-756.342324
 20
1072.641148
 10
-756.330566
 20
1072.807068
 10
-756.314622
 20
1072.978083
  0
LWPOLYLINE
  5
251
100
AcDbEntity
  8
025-DWG
  6
CONTINUOUS
100
AcDbPolyline
 90
        7
 70
   128
 43
0.0
 10
-756.31505
 20
1072.00112
 10
-756.648988
 20
1072.041649
 10
-756.988887
 20
1072.093588
 10
-757.305958
 20
1072.152395
 10
-757.609688
 20
1072.219624
 10
-757.703687
 20
1072.243012
 10
-757.79431
 20
1072.266928
  0
LINE
  5
252
100
AcDbEntity
  8
025-DWG
  6
CONTINUOUS
100
AcDbLine
 10
-756.943239
 20
1081.924437
 30
0.0
 11
-758.875172
 21
1081.924437
 31
0.0
  0
LINE
  5
253
100
AcDbEntity
  8
025-DWG
  6
CONTINUOUS
100
AcDbLine
 10
-756.943239
 20
1081.924437
 30
0.0
 11
-757.049653
 21
1073.234369
 31
0.0
  0
LINE
  5
254
100
AcDbEntity
  8
025-DWG
  6
CONTINUOUS
100
AcDbLine
 10
-756.314622
 20
1072.978083
 30
0.0
 11
-756.205121
 21
1081.920215
 31
0.0
  0
LWPOLYLINE
  5
255
100
AcDbEntity
  8
025-DWG
  6
CONTINUOUS
100
AcDbPolyline
 90
       37
 70
   128
 43
0.0
 10
-753.041525
 20
1079.881194
 10
-752.669052
 20
1079.584349
 10
-752.25007
 20
1079.358115
 10
-751.79731
 20
1079.209366
 10
-751.324528
 20
1079.142622
 10
-750.84609
 20
1079.159911
 10
-750.376533
 20
1079.260707
 10
-749.930125
 20
1079.441948
 10
-749.520428
 20
1079.698128
 10
-749.159892
 20
1080.021461
 10
-748.859471
 20
1080.402124
 10
-748.628293
 20
1080.82855
 10
-748.473383
 20
1081.287783
 10
-748.399447
 20
1081.765869
 10
-748.408732
 20
1082.248282
 10
-748.500956
 20
1082.720364
 10
-748.673316
 20
1083.167771
 10
-748.920576
 20
1083.576909
 10
-749.235223
 20
1083.935345
 10
-749.607696
 20
1084.232191
 10
-750.026678
 20
1084.458425
 10
-750.479438
 20
1084.607173
 10
-750.95222
 20
1084.673917
 10
-751.430658
 20
1084.656628
 10
-751.900215
 20
1084.555832
 10
-752.346623
 20
1084.374591
 10
-752.75632
 20
1084.118412
 10
-753.116856
 20
1083.795079
 10
-753.417277
 20
1083.414416
 10
-753.648455
 20
1082.987989
 10
-753.803365
 20
1082.528756
 10
-753.877301
 20
1082.05067
 10
-753.868016
 20
1081.568257
 10
-753.775792
 20
1081.096175
 10
-753.603431
 20
1080.648768
 10
-753.356171
 20
1080.239631
 10
-753.041525
 20
1079.881194
  0
LWPOLYLINE
  5
256
100
AcDbEntity
  8
025-DWG
  6
CONTINUOUS
100
AcDbPolyline
 90
        6
 70
   128
 43
0.0
 10
-757.049653
 20
1073.234369
 10
-756.907806
 20
1073.165119
 10
-756.745735
 20
1073.099463
 10
-756.575963
 20
1073.04307
 10
-756.393179
 20
1072.994908
 10
-756.314622
 20
1072.978083
  0
LWPOLYLINE
  5
257
100
AcDbEntity
  8
025-DWG
  6
CONTINUOUS
100
AcDbPolyline
 90
        9
 70
   128
 43
0.0
 10
-757.79431
 20
1072.266928
 10
-757.675342
 20
1072.294363
 10
-757.555942
 20
1072.355329
 10
-757.440331
 20
1072.44767
 10
-757.332595
 20
1072.568122
 10
-757.236541
 20
1072.712429
 10
-757.155564
 20
1072.875492
 10
-757.092525
 20
1073.051545
 10
-757.049653
 20
1073.234369
  0
LWPOLYLINE
  5
258
100
AcDbEntity
  8
025-DWG
  6
CONTINUOUS
100
AcDbPolyline
 90
        9
 70
   128
 43
0.0
 10
-753.695149
 20
1082.708159
 10
-753.528356
 20
1083.087624
 10
-752.852595
 20
1083.812545
 10
-751.992488
 20
1084.267156
 10
-751.048609
 20
1084.412137
 10
-750.11908
 20
1084.240461
 10
-749.297088
 20
1083.769866
 10
-748.67107
 20
1083.043407
 10
-748.463544
 20
1082.509201
  0
LINE
  5
259
100
AcDbEntity
  8
025-DWG
  6
CONTINUOUS
100
AcDbLine
 10
-756.943209
 20
1081.924437
 30
0.0
 11
-756.943239
 21
1081.924437
 31
0.0
  0
LWPOLYLINE
  5
25A
100
AcDbEntity
  8
025-DWG
  6
CONTINUOUS
100
AcDbPolyline
 90
        5
 70
   128
 43
0.0
 10
-756.943209
 20
1081.924437
 10
-756.64723
 20
1081.922767
 10
-756.315453
 20
1081.920854
 10
-756.260002
 20
1081.920533
 10
-756.205121
 20
1081.920215
  0
LINE
  5
25B
100
AcDbEntity
  8
025-DWG
  6
CONTINUOUS
100
AcDbLine
 10
-758.875172
 20
1081.924437
 30
0.0
 11
-758.8752
 21
1081.924437
 31
0.0
  0
LINE
  5
25C
100
AcDbEntity
  8
025-DWG
  6
CONTINUOUS
100
AcDbLine
 10
-759.653919
 20
1081.928898
 30
0.0
 11
-759.749784
 21
1073.774771
 31
0.0
  0
LWPOLYLINE
  5
25D
100
AcDbEntity
  8
025-DWG
  6
CONTINUOUS
100
AcDbPolyline
 90
        9
 70
   128
 43
0.0
 10
-759.749784
 20
1073.774771
 10
-759.647143
 20
1073.773548
 10
-759.54383
 20
1073.772337
 10
-759.440947
 20
1073.771152
 10
-759.339592
 20
1073.770007
 10
-759.240847
 20
1073.768911
 10
-759.145767
 20
1073.767879
 10
-759.055367
 20
1073.76692
 10
-758.970612
 20
1073.766045
  0
LWPOLYLINE
  5
25E
100
AcDbEntity
  8
025-DWG
  6
CONTINUOUS
100
AcDbPolyline
 90
        9
 70
   128
 43
0.0
 10
-759.723364
 20
1072.799709
 10
-759.603919
 20
1072.826331
 10
-759.48377
 20
1072.886697
 10
-759.36719
 20
1072.978661
 10
-759.258328
 20
1073.09895
 10
-759.161056
 20
1073.243283
 10
-759.078836
 20
1073.406527
 10
-759.014593
 20
1073.582872
 10
-758.970612
 20
1073.766045
  0
LWPOLYLINE
  5
25F
100
AcDbEntity
  8
025-DWG
  6
CONTINUOUS
100
AcDbPolyline
 90
        9
 70
   128
 43
0.0
 10
-759.749784
 20
1073.774771
 10
-759.766042
 20
1073.604661
 10
-759.77693
 20
1073.439572
 10
-759.782127
 20
1073.284376
 10
-759.781479
 20
1073.143654
 10
-759.775006
 20
1073.02156
 10
-759.762898
 20
1072.921696
 10
-759.745513
 20
1072.847011
 10
-759.723364
 20
1072.799709
  0
LWPOLYLINE
  5
260
100
AcDbEntity
  8
035-DWG
  6
CONTINUOUS
100
AcDbPolyline
 90
        6
 70
   128
 43
0.0
 10
-685.39963
 20
1093.853563
 10
-684.229529
 20
1093.609772
 10
-680.197457
 20
1092.719106
 10
-676.196475
 20
1091.760725
 10
-672.222959
 20
1090.739265
 10
-668.28306
 20
1089.661764
  0
LWPOLYLINE
  5
261
100
AcDbEntity
  8
025-DWG
  6
CONTINUOUS
100
AcDbPolyline
 90
        5
 70
   128
 43
0.0
 10
-692.735694
 20
1072.799709
 10
-687.778188
 20
1073.402866
 10
-682.850115
 20
1074.08631
 10
-675.953956
 20
1075.184183
 10
-669.131914
 20
1076.434269
  0
LWPOLYLINE
  5
262
100
AcDbEntity
  8
025-DWG
  6
CONTINUOUS
100
AcDbPolyline
 90
        5
 70
   128
 43
0.0
 10
-669.086434
 20
1077.390591
 10
-676.534738
 20
1076.041967
 10
-681.782822
 20
1075.207727
 10
-687.080455
 20
1074.46194
 10
-692.709274
 20
1073.774771
  0
LWPOLYLINE
  5
263
100
AcDbEntity
  8
025-DWG
  6
CONTINUOUS
100
AcDbPolyline
 90
        3
 70
   128
 43
0.0
 10
-706.580795
 20
1071.130476
 10
-704.600396
 20
1071.259886
 10
-696.144007
 20
1072.00112
  0
LWPOLYLINE
  5
264
100
AcDbEntity
  8
025-DWG
  6
CONTINUOUS
100
AcDbPolyline
 90
        3
 70
   128
 43
0.0
 10
-696.144435
 20
1072.978083
 10
-701.335775
 20
1072.487421
 10
-706.537896
 20
1072.111943
  0
LWPOLYLINE
  5
265
100
AcDbEntity
  8
025-DWG
  6
CONTINUOUS
100
AcDbPolyline
 90
       37
 70
   128
 43
0.0
 10
-699.417533
 20
1079.881194
 10
-699.790006
 20
1079.584349
 10
-700.208988
 20
1079.358115
 10
-700.661748
 20
1079.209366
 10
-701.134529
 20
1079.142622
 10
-701.612967
 20
1079.159911
 10
-702.082524
 20
1079.260707
 10
-702.528933
 20
1079.441948
 10
-702.93863
 20
1079.698128
 10
-703.299166
 20
1080.021461
 10
-703.599587
 20
1080.402124
 10
-703.830765
 20
1080.82855
 10
-703.985675
 20
1081.287783
 10
-704.059611
 20
1081.765869
 10
-704.050326
 20
1082.248282
 10
-703.958102
 20
1082.720364
 10
-703.785741
 20
1083.167771
 10
-703.538481
 20
1083.576909
 10
-703.223834
 20
1083.935345
 10
-702.851361
 20
1084.232191
 10
-702.432379
 20
1084.458425
 10
-701.979619
 20
1084.607173
 10
-701.506838
 20
1084.673917
 10
-701.0284
 20
1084.656628
 10
-700.558843
 20
1084.555832
 10
-700.112434
 20
1084.374591
 10
-699.702737
 20
1084.118412
 10
-699.342201
 20
1083.795079
 10
-699.04178
 20
1083.414416
 10
-698.810602
 20
1082.987989
 10
-698.655692
 20
1082.528756
 10
-698.581756
 20
1082.05067
 10
-698.591042
 20
1081.568257
 10
-698.683265
 20
1081.096175
 10
-698.855626
 20
1080.648768
 10
-699.102886
 20
1080.239631
 10
-699.417533
 20
1079.881194
  0
LWPOLYLINE
  5
266
100
AcDbEntity
  8
025-DWG
  6
CONTINUOUS
100
AcDbPolyline
 90
        9
 70
   128
 43
0.0
 10
-698.770271
 20
1082.732276
 10
-699.106917
 20
1083.327821
 10
-699.847811
 20
1083.978688
 10
-700.743414
 20
1084.343547
 10
-701.693034
 20
1084.393769
 10
-702.600099
 20
1084.130166
 10
-703.37268
 20
1083.577599
 10
-703.924612
 20
1082.787672
 10
-703.99987
 20
1082.514754
  0
LWPOLYLINE
  5
267
100
AcDbEntity
  8
025-DWG
  6
CONTINUOUS
100
AcDbPolyline
 90
       20
 70
   128
 43
0.0
 10
-692.805138
 20
1081.928898
 10
-692.924893
 20
1083.355731
 10
-693.276488
 20
1084.742631
 10
-693.854243
 20
1086.049931
 10
-694.640038
 20
1087.24083
 10
-695.612756
 20
1088.275704
 10
-696.745203
 20
1089.129139
 10
-697.989038
 20
1089.764256
 10
-699.322364
 20
1090.177729
 10
-700.687233
 20
1090.352188
 10
-702.062947
 20
1090.29323
 10
-703.399949
 20
1090.002353
 10
-704.671481
 20
1089.492178
 10
-705.845312
 20
1088.772011
 10
-706.885975
 20
1087.867458
 10
-707.773773
 20
1086.787735
 10
-708.473282
 20
1085.576165
 10
-708.969317
 20
1084.24487
 10
-709.239835
 20
1082.849637
 10
-709.289832
 20
1081.928898
  0
LWPOLYLINE
  5
268
100
AcDbEntity
  8
025-DWG
  6
CONTINUOUS
100
AcDbPolyline
 90
       20
 70
   128
 43
0.0
 10
-708.583876
 20
1081.924437
 10
-708.504097
 20
1083.042673
 10
-708.267738
 20
1084.138385
 10
-707.788903
 20
1085.376381
 10
-707.109299
 20
1086.515625
 10
-706.254034
 20
1087.510819
 10
-705.243273
 20
1088.345296
 10
-704.127566
 20
1088.978851
 10
-702.921855
 20
1089.412157
 10
-701.687907
 20
1089.625387
 10
-700.437059
 20
1089.62614
 10
-699.220442
 20
1089.415118
 10
-698.056452
 20
1089.003353
 10
-696.974585
 20
1088.398637
 10
-696.006128
 20
1087.622892
 10
-695.164946
 20
1086.68003
 10
-694.487351
 20
1085.610765
 10
-693.983352
 20
1084.417318
 10
-693.679209
 20
1083.156184
 10
-693.583858
 20
1081.924437
  0
LWPOLYLINE
  5
269
100
AcDbEntity
  8
025-DWG
  6
CONTINUOUS
100
AcDbPolyline
 90
       17
 70
   128
 43
0.0
 10
-695.515849
 20
1081.924437
 10
-695.626978
 20
1083.061605
 10
-695.956094
 20
1084.155073
 10
-696.490549
 20
1085.162818
 10
-697.209805
 20
1086.046114
 10
-698.08622
 20
1086.771017
 10
-699.086116
 20
1087.309668
 10
-700.171065
 20
1087.641368
 10
-701.299375
 20
1087.753369
 10
-702.427685
 20
1087.641368
 10
-703.512635
 20
1087.309668
 10
-704.512531
 20
1086.771017
 10
-705.388946
 20
1086.046114
 10
-706.108202
 20
1085.162818
 10
-706.642657
 20
1084.155073
 10
-706.971773
 20
1083.061605
 10
-707.082902
 20
1081.924437
  0
LWPOLYLINE
  5
26A
100
AcDbEntity
  8
025-DWG
  6
CONTINUOUS
100
AcDbPolyline
 90
       16
 70
   128
 43
0.0
 10
-706.417788
 20
1081.920215
 10
-706.307491
 20
1082.985745
 10
-705.979683
 20
1084.004842
 10
-705.448705
 20
1084.93292
 10
-704.737788
 20
1085.729376
 10
-703.878036
 20
1086.359364
 10
-702.907061
 20
1086.795321
 10
-701.867346
 20
1087.018175
 10
-700.804379
 20
1087.018175
 10
-699.764663
 20
1086.795321
 10
-698.793689
 20
1086.359364
 10
-697.933936
 20
1085.729376
 10
-697.223019
 20
1084.93292
 10
-696.692042
 20
1084.004842
 10
-696.364233
 20
1082.985745
 10
-696.253936
 20
1081.920215
  0
LWPOLYLINE
  5
26B
100
AcDbEntity
  8
025-DWG
  6
CONTINUOUS
100
AcDbPolyline
 90
        7
 70
   128
 43
0.0
 10
-694.664748
 20
1072.266928
 10
-694.945761
 20
1072.196988
 10
-695.263522
 20
1072.130704
 10
-695.591866
 20
1072.073729
 10
-695.940364
 20
1072.024605
 10
-696.042185
 20
1072.01238
 10
-696.144007
 20
1072.00112
  0
LWPOLYLINE
  5
26C
100
AcDbEntity
  8
025-DWG
  6
CONTINUOUS
100
AcDbPolyline
 90
        9
 70
   128
 43
0.0
 10
-696.144435
 20
1072.978083
 10
-696.128491
 20
1072.807068
 10
-696.116733
 20
1072.641148
 10
-696.109512
 20
1072.485264
 10
-696.107042
 20
1072.344062
 10
-696.109396
 20
1072.221747
 10
-696.116506
 20
1072.121963
 10
-696.128159
 20
1072.047683
 10
-696.144007
 20
1072.00112
  0
LINE
  5
26D
100
AcDbEntity
  8
025-DWG
  6
CONTINUOUS
100
AcDbLine
 10
-695.409405
 20
1073.234369
 30
0.0
 11
-695.515819
 21
1081.924437
 31
0.0
  0
LINE
  5
26E
100
AcDbEntity
  8
025-DWG
  6
CONTINUOUS
100
AcDbLine
 10
-696.253936
 20
1081.920215
 30
0.0
 11
-696.144435
 21
1072.978083
 31
0.0
  0
LINE
  5
26F
100
AcDbEntity
  8
025-DWG
  6
CONTINUOUS
100
AcDbLine
 10
-692.709274
 20
1073.774771
 30
0.0
 11
-692.805138
 21
1081.928898
 31
0.0
  0
LINE
  5
270
100
AcDbEntity
  8
025-DWG
  6
CONTINUOUS
100
AcDbLine
 10
-693.583885
 20
1081.924437
 30
0.0
 11
-693.488445
 21
1073.766045
 31
0.0
  0
LWPOLYLINE
  5
271
100
AcDbEntity
  8
025-DWG
  6
CONTINUOUS
100
AcDbPolyline
 90
        3
 70
   128
 43
0.0
 10
-694.664748
 20
1072.266928
 10
-693.121234
 20
1072.691908
 10
-692.735694
 20
1072.799709
  0
LINE
  5
272
100
AcDbEntity
  8
025-DWG
  6
CONTINUOUS
100
AcDbLine
 10
-693.488445
 20
1073.766045
 30
0.0
 11
-695.409405
 21
1073.234369
 31
0.0
  0
LWPOLYLINE
  5
273
100
AcDbEntity
  8
025-DWG
  6
CONTINUOUS
100
AcDbPolyline
 90
        9
 70
   128
 43
0.0
 10
-693.488445
 20
1073.766045
 10
-693.40369
 20
1073.76692
 10
-693.31329
 20
1073.767879
 10
-693.21821
 20
1073.768911
 10
-693.119466
 20
1073.770007
 10
-693.018111
 20
1073.771152
 10
-692.915228
 20
1073.772337
 10
-692.811914
 20
1073.773548
 10
-692.709274
 20
1073.774771
  0
LWPOLYLINE
  5
274
100
AcDbEntity
  8
025-DWG
  6
CONTINUOUS
100
AcDbPolyline
 90
        9
 70
   128
 43
0.0
 10
-693.488445
 20
1073.766045
 10
-693.444464
 20
1073.582872
 10
-693.380221
 20
1073.406527
 10
-693.298001
 20
1073.243283
 10
-693.200729
 20
1073.09895
 10
-693.091867
 20
1072.978661
 10
-692.975287
 20
1072.886697
 10
-692.855138
 20
1072.826331
 10
-692.735694
 20
1072.799709
  0
LWPOLYLINE
  5
275
100
AcDbEntity
  8
025-DWG
  6
CONTINUOUS
100
AcDbPolyline
 90
        9
 70
   128
 43
0.0
 10
-692.735694
 20
1072.799709
 10
-692.713545
 20
1072.847011
 10
-692.696159
 20
1072.921696
 10
-692.684052
 20
1073.02156
 10
-692.677578
 20
1073.143654
 10
-692.67693
 20
1073.284376
 10
-692.682127
 20
1073.439572
 10
-692.693016
 20
1073.604661
 10
-692.709274
 20
1073.774771
  0
LWPOLYLINE
  5
276
100
AcDbEntity
  8
025-DWG
  6
CONTINUOUS
100
AcDbPolyline
 90
        9
 70
   128
 43
0.0
 10
-695.409405
 20
1073.234369
 10
-695.366533
 20
1073.051545
 10
-695.303494
 20
1072.875492
 10
-695.222517
 20
1072.712429
 10
-695.126462
 20
1072.568122
 10
-695.018726
 20
1072.44767
 10
-694.903115
 20
1072.355329
 10
-694.783716
 20
1072.294363
 10
-694.664748
 20
1072.266928
  0
LWPOLYLINE
  5
277
100
AcDbEntity
  8
025-DWG
  6
CONTINUOUS
100
AcDbPolyline
 90
        6
 70
   128
 43
0.0
 10
-696.144435
 20
1072.978083
 10
-695.978984
 20
1073.01623
 10
-695.81216
 20
1073.065212
 10
-695.658357
 20
1073.120331
 10
-695.512392
 20
1073.182858
 10
-695.409405
 20
1073.234369
  0
LINE
  5
278
100
AcDbEntity
  8
025-DWG
  6
CONTINUOUS
100
AcDbLine
 10
-695.515819
 20
1081.924437
 30
0.0
 11
-693.583885
 21
1081.924437
 31
0.0
  0
LINE
  5
279
100
AcDbEntity
  8
025-DWG
  6
CONTINUOUS
100
AcDbLine
 10
-693.583885
 20
1081.924437
 30
0.0
 11
-693.583858
 21
1081.924437
 31
0.0
  0
LWPOLYLINE
  5
27A
100
AcDbEntity
  8
025-DWG
  6
CONTINUOUS
100
AcDbPolyline
 90
        5
 70
   128
 43
0.0
 10
-693.583858
 20
1081.924437
 10
-693.287881
 20
1081.926026
 10
-692.956106
 20
1081.927966
 10
-692.863992
 20
1081.928531
 10
-692.805138
 20
1081.928898
  0
LINE
  5
27B
100
AcDbEntity
  8
025-DWG
  6
CONTINUOUS
100
AcDbLine
 10
-695.515819
 20
1081.924437
 30
0.0
 11
-695.515849
 21
1081.924437
 31
0.0
  0
LWPOLYLINE
  5
27C
100
AcDbEntity
  8
025-DWG
  6
CONTINUOUS
100
AcDbPolyline
 90
        5
 70
   128
 43
0.0
 10
-696.253936
 20
1081.920215
 10
-696.199056
 20
1081.920533
 10
-696.143604
 20
1081.920854
 10
-695.811827
 20
1081.922767
 10
-695.515849
 20
1081.924437
  0
LWPOLYLINE
  5
27D
100
AcDbEntity
  8
025-DWG
  6
CONTINUOUS
100
AcDbPolyline
 90
        9
 70
   128
 43
0.0
 10
-709.403406
 20
1072.367805
 10
-709.394971
 20
1072.195056
 10
-709.3893
 20
1072.027517
 10
-709.386562
 20
1071.870244
 10
-709.386842
 20
1071.727978
 10
-709.390129
 20
1071.605013
 10
-709.396326
 20
1071.505057
 10
-709.405245
 20
1071.431125
 10
-709.416618
 20
1071.385447
  0
LWPOLYLINE
  5
27E
100
AcDbEntity
  8
025-DWG
  6
CONTINUOUS
100
AcDbPolyline
 90
        9
 70
   128
 43
0.0
 10
-709.416618
 20
1071.385447
 10
-709.280292
 20
1071.428443
 10
-709.150266
 20
1071.500123
 10
-709.030509
 20
1071.598298
 10
-708.924679
 20
1071.719972
 10
-708.836007
 20
1071.861427
 10
-708.7672
 20
1072.018346
 10
-708.72036
 20
1072.185935
 10
-708.696918
 20
1072.359078
  0
LWPOLYLINE
  5
27F
100
AcDbEntity
  8
025-DWG
  6
CONTINUOUS
100
AcDbPolyline
 90
        9
 70
   128
 43
0.0
 10
-707.916374
 20
1071.156896
 10
-707.780746
 20
1071.200533
 10
-707.65154
 20
1071.27262
 10
-707.532673
 20
1071.370971
 10
-707.42775
 20
1071.492604
 10
-707.339951
 20
1071.63383
 10
-707.271939
 20
1071.790369
 10
-707.225776
 20
1071.957472
 10
-707.202862
 20
1072.130074
  0
LWPOLYLINE
  5
280
100
AcDbEntity
  8
025-DWG
  6
CONTINUOUS
100
AcDbPolyline
 90
        9
 70
   128
 43
0.0
 10
-706.580795
 20
1071.130476
 10
-706.562767
 20
1071.176586
 10
-706.547731
 20
1071.250765
 10
-706.536139
 20
1071.350788
 10
-706.528337
 20
1071.473652
 10
-706.524561
 20
1071.615671
 10
-706.524923
 20
1071.772583
 10
-706.529413
 20
1071.939678
 10
-706.537896
 20
1072.111943
  0
LWPOLYLINE
  5
281
100
AcDbEntity
  8
025-DWG
  6
CONTINUOUS
100
AcDbPolyline
 90
        7
 70
   128
 43
0.0
 10
-706.580795
 20
1071.130476
 10
-706.901664
 20
1071.115819
 10
-707.216258
 20
1071.11189
 10
-707.498184
 20
1071.118982
 10
-707.755475
 20
1071.137205
 10
-707.838587
 20
1071.146373
 10
-707.916374
 20
1071.156896
  0
LWPOLYLINE
  5
282
100
AcDbEntity
  8
025-DWG
  6
CONTINUOUS
100
AcDbPolyline
 90
        3
 70
   128
 43
0.0
 10
-709.416618
 20
1071.385447
 10
-708.193135
 20
1071.198348
 10
-707.916374
 20
1071.156896
  0
LINE
  5
283
100
AcDbEntity
  8
025-DWG
  6
CONTINUOUS
100
AcDbLine
 10
-709.289832
 20
1081.928898
 30
0.0
 11
-709.403406
 21
1072.367805
 31
0.0
  0
LINE
  5
284
100
AcDbEntity
  8
025-DWG
  6
CONTINUOUS
100
AcDbLine
 10
-708.696918
 20
1072.359078
 30
0.0
 11
-708.583855
 21
1081.924437
 31
0.0
  0
LINE
  5
285
100
AcDbEntity
  8
025-DWG
  6
CONTINUOUS
100
AcDbLine
 10
-707.082925
 20
1081.924437
 30
0.0
 11
-707.202862
 21
1072.130074
 31
0.0
  0
LINE
  5
286
100
AcDbEntity
  8
025-DWG
  6
CONTINUOUS
100
AcDbLine
 10
-706.537896
 20
1072.111943
 30
0.0
 11
-706.417788
 21
1081.920215
 31
0.0
  0
LWPOLYLINE
  5
287
100
AcDbEntity
  8
025-DWG
  6
CONTINUOUS
100
AcDbPolyline
 90
        9
 70
   128
 43
0.0
 10
-709.403406
 20
1072.367805
 10
-709.301015
 20
1072.366581
 10
-709.200606
 20
1072.36537
 10
-709.103251
 20
1072.364186
 10
-709.009989
 20
1072.36304
 10
-708.921816
 20
1072.361945
 10
-708.839674
 20
1072.360912
 10
-708.76444
 20
1072.359953
 10
-708.696918
 20
1072.359078
  0
LINE
  5
288
100
AcDbEntity
  8
025-DWG
  6
CONTINUOUS
100
AcDbLine
 10
-707.202862
 20
1072.130074
 30
0.0
 11
-708.696918
 21
1072.359078
 31
0.0
  0
LWPOLYLINE
  5
289
100
AcDbEntity
  8
025-DWG
  6
CONTINUOUS
100
AcDbPolyline
 90
        6
 70
   128
 43
0.0
 10
-707.202862
 20
1072.130074
 10
-707.099365
 20
1072.107365
 10
-706.974953
 20
1072.093418
 10
-706.839664
 20
1072.089614
 10
-706.689641
 20
1072.095984
 10
-706.537896
 20
1072.111943
  0
LWPOLYLINE
  5
28A
100
AcDbEntity
  8
025-DWG
  6
CONTINUOUS
100
AcDbPolyline
 90
        5
 70
   128
 43
0.0
 10
-709.289832
 20
1081.928898
 10
-709.23081
 20
1081.928531
 10
-709.140178
 20
1081.927966
 10
-708.831469
 20
1081.926026
 10
-708.583876
 20
1081.924437
  0
LINE
  5
28B
100
AcDbEntity
  8
025-DWG
  6
CONTINUOUS
100
AcDbLine
 10
-708.583876
 20
1081.924437
 30
0.0
 11
-708.583855
 21
1081.924437
 31
0.0
  0
LINE
  5
28C
100
AcDbEntity
  8
025-DWG
  6
CONTINUOUS
100
AcDbLine
 10
-708.583855
 20
1081.924437
 30
0.0
 11
-707.082925
 21
1081.924437
 31
0.0
  0
LINE
  5
28D
100
AcDbEntity
  8
025-DWG
  6
CONTINUOUS
100
AcDbLine
 10
-707.082902
 20
1081.924437
 30
0.0
 11
-707.082925
 21
1081.924437
 31
0.0
  0
LWPOLYLINE
  5
28E
100
AcDbEntity
  8
025-DWG
  6
CONTINUOUS
100
AcDbPolyline
 90
        5
 70
   128
 43
0.0
 10
-707.082902
 20
1081.924437
 10
-706.835308
 20
1081.922767
 10
-706.526597
 20
1081.920854
 10
-706.47229
 20
1081.920533
 10
-706.417788
 20
1081.920215
  0
LINE
  5
28F
100
AcDbEntity
  8
035-DWG
  6
CONTINUOUS
100
AcDbLine
 10
-668.28306
 20
1089.661764
 30
0.0
 11
-668.28306
 21
1078.312323
 31
0.0
  0
LWPOLYLINE
  5
290
100
AcDbEntity
  8
025-DWG
  6
CONTINUOUS
100
AcDbPolyline
 90
        6
 70
   128
 43
0.0
 10
-668.28306
 20
1078.312323
 10
-668.330682
 20
1078.021607
 10
-668.467937
 20
1077.763887
 10
-668.679144
 20
1077.561479
 10
-668.963043
 20
1077.421942
 10
-669.086434
 20
1077.390591
  0
LWPOLYLINE
  5
291
100
AcDbEntity
  8
025-DWG
  6
CONTINUOUS
100
AcDbPolyline
 90
        9
 70
   128
 43
0.0
 10
-669.086434
 20
1077.390591
 10
-669.061005
 20
1077.227013
 10
-669.044163
 20
1077.067996
 10
-669.036378
 20
1076.917977
 10
-669.037865
 20
1076.781139
 10
-669.048585
 20
1076.661298
 10
-669.068237
 20
1076.561797
 10
-669.096274
 20
1076.48541
 10
-669.131914
 20
1076.434269
  0
LWPOLYLINE
  5
292
100
AcDbEntity
  8
025-DWG
  6
CONTINUOUS
100
AcDbPolyline
 90
        9
 70
   128
 43
0.0
 10
-668.011175
 20
1093.069017
 10
-668.050362
 20
1092.908747
 10
-668.123855
 20
1092.754332
 10
-668.228967
 20
1092.611414
 10
-668.36186
 20
1092.485216
 10
-668.517677
 20
1092.380346
 10
-668.690727
 20
1092.300638
 10
-668.874685
 20
1092.249002
 10
-669.062833
 20
1092.227326
  0
LWPOLYLINE
  5
293
100
AcDbEntity
  8
025-DWG
  6
CONTINUOUS
100
AcDbPolyline
 90
        7
 70
   128
 43
0.0
 10
-669.062833
 20
1092.227326
 10
-668.84161
 20
1091.813882
 10
-668.634518
 20
1091.296462
 10
-668.502111
 20
1090.864925
 10
-668.388646
 20
1090.380523
 10
-668.327871
 20
1090.030255
 10
-668.28306
 20
1089.661764
  0
LINE
  5
294
100
AcDbEntity
  8
025-DWG
  6
CONTINUOUS
100
AcDbLine
 10
-667.591326
 20
1078.312323
 30
0.0
 11
-667.591326
 21
1089.661764
 31
0.0
  0
LINE
  5
295
100
AcDbEntity
  8
025-DWG
  6
CONTINUOUS
100
AcDbLine
 10
-664.033977
 20
1076.222827
 30
0.0
 11
-667.591326
 21
1078.312323
 31
0.0
  0
LWPOLYLINE
  5
296
100
AcDbEntity
  8
035-DWG
  6
CONTINUOUS
100
AcDbPolyline
 90
        6
 70
   128
 43
0.0
 10
-664.033977
 20
1076.222827
 10
-664.126153
 20
1075.653468
 10
-664.391045
 20
1075.149051
 10
-664.799087
 20
1074.749716
 10
-665.356357
 20
1074.465864
 10
-665.624371
 20
1074.394662
  0
LWPOLYLINE
  5
297
100
AcDbEntity
  8
025-DWG
  6
CONTINUOUS
100
AcDbPolyline
 90
        5
 70
   128
 43
0.0
 10
-669.131914
 20
1076.434269
 10
-668.499201
 20
1076.699789
 10
-667.991761
 20
1077.162225
 10
-667.681631
 20
1077.753817
 10
-667.591326
 20
1078.312323
  0
LINE
  5
298
100
AcDbEntity
  8
025-DWG
  6
CONTINUOUS
100
AcDbLine
 10
-668.28306
 20
1078.312323
 30
0.0
 11
-667.591326
 21
1078.312323
 31
0.0
  0
LWPOLYLINE
  5
299
100
AcDbEntity
  8
025-DWG
  6
CONTINUOUS
100
AcDbPolyline
 90
        4
 70
   128
 43
0.0
 10
-669.131914
 20
1076.434269
 10
-668.48377
 20
1076.05394
 10
-666.901073
 20
1075.131776
 10
-665.624371
 20
1074.394662
  0
LINE
  5
29A
100
AcDbEntity
  8
025-DWG
  6
CONTINUOUS
100
AcDbLine
 10
-667.591326
 20
1089.661764
 30
0.0
 11
-668.28306
 21
1089.661764
 31
0.0
  0
LWPOLYLINE
  5
29B
100
AcDbEntity
  8
025-DWG
  6
CONTINUOUS
100
AcDbPolyline
 90
        5
 70
   128
 43
0.0
 10
-667.591326
 20
1089.661764
 10
-667.637296
 20
1090.880206
 10
-667.76066
 20
1091.960752
 10
-667.967792
 20
1092.92763
 10
-668.011175
 20
1093.069017
  0
LINE
  5
29C
100
AcDbEntity
  8
035-DWG
100
AcDbLine
 10
-705.371244
 20
1181.42981
 30
0.0
 11
-746.668755
 21
1181.42981
 31
0.0
  0
LINE
  5
29D
100
AcDbEntity
  8
025-DWG
100
AcDbLine
 10
-704.854153
 20
1182.012827
 30
0.0
 11
-747.185845
 21
1182.012827
 31
0.0
  0
LWPOLYLINE
  5
29E
100
AcDbEntity
  8
035-DWG
  6
CONTINUOUS
100
AcDbPolyline
 90
       15
 70
   128
 43
0.0
 10
-678.086317
 20
1122.971205
 10
-684.740242
 20
1124.350444
 10
-691.469642
 20
1125.531225
 10
-698.258385
 20
1126.507993
 10
-705.09034
 20
1127.275193
 10
-712.159902
 20
1127.841712
 10
-719.262849
 20
1128.181066
 10
-726.378974
 20
1128.291928
 10
-733.488071
 20
1128.172968
 10
-740.34949
 20
1127.838952
 10
-747.188935
 20
1127.292175
 10
-753.988664
 20
1126.535611
 10
-760.846584
 20
1125.554762
 10
-767.646676
 20
1124.364567
 10
-774.372741
 20
1122.971205
  0
LWPOLYLINE
  5
29F
100
AcDbEntity
  8
025-DWG
  6
CONTINUOUS
100
AcDbPolyline
 90
       15
 70
   128
 43
0.0
 10
-774.372635
 20
1121.995259
 10
-767.718718
 20
1123.369251
 10
-760.989327
 20
1124.54554
 10
-754.200593
 20
1125.518592
 10
-747.368647
 20
1126.282872
 10
-740.299094
 20
1126.847235
 10
-733.196157
 20
1127.185297
 10
-726.080042
 20
1127.295736
 10
-718.970955
 20
1127.177228
 10
-712.109559
 20
1126.844482
 10
-705.270137
 20
1126.299784
 10
-698.47043
 20
1125.546099
 10
-691.612534
 20
1124.568983
 10
-684.812465
 20
1123.383318
 10
-678.086423
 20
1121.995259
  0
LWPOLYLINE
  5
2A0
100
AcDbEntity
  8
025-DWG
  6
CONTINUOUS
100
AcDbPolyline
 90
       15
 70
   128
 43
0.0
 10
-678.086423
 20
1116.136774
 10
-684.656629
 20
1117.52656
 10
-691.302315
 20
1118.719132
 10
-698.007598
 20
1119.708935
 10
-704.756595
 20
1120.490415
 10
-711.741284
 20
1121.072927
 10
-718.760084
 20
1121.429561
 10
-725.793022
 20
1121.558894
 10
-732.820129
 20
1121.459506
 10
-739.79274
 20
1121.133538
 10
-746.743195
 20
1120.583715
 10
-753.652409
 20
1119.813174
 10
-760.625733
 20
1118.806031
 10
-767.538278
 20
1117.578339
 10
-774.372635
 20
1116.136774
  0
LWPOLYLINE
  5
2A1
100
AcDbEntity
  8
025-DWG
  6
CONTINUOUS
100
AcDbPolyline
 90
       15
 70
   128
 43
0.0
 10
-773.966633
 20
1115.161843
 10
-767.481616
 20
1116.540332
 10
-760.921771
 20
1117.724288
 10
-754.302747
 20
1118.708178
 10
-747.640192
 20
1119.486464
 10
-740.744609
 20
1120.068533
 10
-733.814934
 20
1120.427589
 10
-726.870893
 20
1120.562183
 10
-719.932211
 20
1120.470863
 10
-712.97886
 20
1120.151434
 10
-706.047533
 20
1119.606475
 10
-699.157661
 20
1118.839173
 10
-692.202003
 20
1117.833322
 10
-685.307691
 20
1116.605266
 10
-678.492424
 20
1115.161843
  0
LWPOLYLINE
  5
2A2
100
AcDbEntity
  8
025-DWG
  6
CONTINUOUS
100
AcDbPolyline
 90
       19
 70
   128
 43
0.0
 10
-690.968195
 20
1116.49737
 10
-692.790893
 20
1116.804094
 10
-696.919705
 20
1117.417796
 10
-701.064448
 20
1117.953107
 10
-705.214565
 20
1118.408674
 10
-709.360417
 20
1118.783617
 10
-713.492642
 20
1119.077405
 10
-717.602238
 20
1119.289847
 10
-721.68064
 20
1119.421079
 10
-725.719777
 20
1119.471539
 10
-729.717985
 20
1119.443565
 10
-733.774975
 20
1119.338105
 10
-737.858961
 20
1119.153355
 10
-741.938819
 20
1118.889828
 10
-746.015942
 20
1118.547401
 10
-750.091845
 20
1118.12583
 10
-754.167624
 20
1117.6245
 10
-758.215256
 20
1117.046598
 10
-761.496303
 20
1116.513836
  0
LWPOLYLINE
  5
2A3
100
AcDbEntity
  8
025-DWG
  6
CONTINUOUS
100
AcDbPolyline
 90
       21
 70
   128
 43
0.0
 10
-763.374976
 20
1109.800333
 10
-762.557235
 20
1109.951317
 10
-758.534848
 20
1110.615131
 10
-754.523225
 20
1111.198685
 10
-750.538174
 20
1111.700266
 10
-746.565114
 20
1112.123605
 10
-742.560888
 20
1112.473521
 10
-738.556707
 20
1112.746612
 10
-734.551139
 20
1112.943163
 10
-730.542723
 20
1113.063347
 10
-726.529988
 20
1113.107227
 10
-722.510028
 20
1113.072996
 10
-718.575923
 20
1112.96288
 10
-714.615148
 20
1112.776762
 10
-710.62757
 20
1112.514068
 10
-706.62042
 20
1112.174578
 10
-702.60133
 20
1111.758313
 10
-698.578318
 20
1111.265561
 10
-694.559738
 20
1110.696883
 10
-690.554207
 20
1110.053133
 10
-689.088373
 20
1109.789056
  0
LWPOLYLINE
  5
2A4
100
AcDbEntity
  8
025-DWG
  6
CONTINUOUS
100
AcDbPolyline
 90
       12
 70
   128
 43
0.0
 10
-690.92556
 20
1116.525341
 10
-697.223033
 20
1117.489741
 10
-703.569652
 20
1118.267977
 10
-709.99917
 20
1118.859697
 10
-716.457314
 20
1119.256424
 10
-723.074833
 20
1119.458171
 10
-729.69823
 20
1119.453342
 10
-736.365062
 20
1119.239275
 10
-743.012804
 20
1118.816609
 10
-749.22608
 20
1118.231333
 10
-755.404405
 20
1117.466295
 10
-761.533497
 20
1116.525341
  0
LWPOLYLINE
  5
2A5
100
AcDbEntity
  8
035-DWG
  6
CONTINUOUS
100
AcDbPolyline
 90
       12
 70
   128
 43
0.0
 10
-763.397196
 20
1107.347589
 10
-755.336739
 20
1108.612603
 10
-747.181988
 20
1109.575454
 10
-738.968722
 20
1110.226721
 10
-732.601183
 20
1110.511612
 10
-726.215659
 20
1110.606298
 10
-719.830161
 20
1110.510782
 10
-713.4627
 20
1110.225066
 10
-707.323853
 20
1109.768094
 10
-701.217808
 20
1109.136583
 10
-695.113261
 20
1108.327177
 10
-689.061862
 20
1107.347589
  0
LWPOLYLINE
  5
2A6
100
AcDbEntity
  8
025-DWG
  6
CONTINUOUS
100
AcDbPolyline
 90
        9
 70
   128
 43
0.0
 10
-767.530665
 20
1111.3172
 10
-767.121202
 20
1111.334552
 10
-766.744874
 20
1111.363175
 10
-766.413208
 20
1111.402192
 10
-766.136364
 20
1111.450408
 10
-765.922822
 20
1111.506346
 10
-765.779124
 20
1111.568292
 10
-765.709672
 20
1111.634349
 10
-765.703299
 20
1111.659265
  0
LWPOLYLINE
  5
2A7
100
AcDbEntity
  8
025-DWG
  6
CONTINUOUS
100
AcDbPolyline
 90
        5
 70
   128
 43
0.0
 10
-767.513256
 20
1110.913618
 10
-767.430896
 20
1109.916587
 10
-767.26564
 20
1108.923545
 10
-767.174801
 20
1108.561737
 10
-767.059428
 20
1108.205385
  0
LWPOLYLINE
  5
2A8
100
AcDbEntity
  8
025-DWG
  6
CONTINUOUS
100
AcDbPolyline
 90
        9
 70
   128
 43
0.0
 10
-767.513256
 20
1110.913618
 10
-767.096614
 20
1110.991193
 10
-766.713833
 20
1111.066258
 10
-766.377297
 20
1111.136385
 10
-766.097893
 20
1111.199305
 10
-765.884661
 20
1111.252982
 10
-765.744499
 20
1111.295681
 10
-765.68194
 20
1111.32602
 10
-765.678742
 20
1111.333125
  0
LINE
  5
2A9
100
AcDbEntity
  8
025-DWG
  6
CONTINUOUS
100
AcDbLine
 10
-767.288651
 20
1113.508177
 30
0.0
 11
-767.476761
 21
1113.470886
 31
0.0
  0
LWPOLYLINE
  5
2AA
100
AcDbEntity
  8
025-DWG
  6
CONTINUOUS
100
AcDbPolyline
 90
        5
 70
   128
 43
0.0
 10
-767.288651
 20
1113.508177
 10
-767.326076
 20
1113.491276
 10
-767.36383
 20
1113.471192
 10
-767.401947
 20
1113.44794
 10
-767.440321
 20
1113.421616
  0
LWPOLYLINE
  5
2AB
100
AcDbEntity
  8
025-DWG
  6
CONTINUOUS
100
AcDbPolyline
 90
        6
 70
   128
 43
0.0
 10
-767.440321
 20
1113.421616
 10
-767.003555
 20
1113.514584
 10
-766.593035
 20
1113.683225
 10
-766.22217
 20
1113.922031
 10
-765.903073
 20
1114.223201
 10
-765.782322
 20
1114.372338
  0
LWPOLYLINE
  5
2AC
100
AcDbEntity
  8
025-DWG
  6
CONTINUOUS
100
AcDbPolyline
 90
        4
 70
   128
 43
0.0
 10
-769.931789
 20
1113.848463
 10
-769.887611
 20
1112.778322
 10
-769.710899
 20
1108.497741
 10
-769.198061
 20
1096.074509
  0
LWPOLYLINE
  5
2AD
100
AcDbEntity
  8
025-DWG
  6
CONTINUOUS
100
AcDbPolyline
 90
        3
 70
   128
 43
0.0
 10
-768.260898
 20
1096.916833
 10
-768.62819
 20
1105.803854
 10
-768.995484
 20
1114.690741
  0
LINE
  5
2AE
100
AcDbEntity
  8
025-DWG
  6
CONTINUOUS
100
AcDbLine
 10
-768.260898
 20
1110.913618
 30
0.0
 11
-768.260898
 21
1096.916833
 31
0.0
  0
LWPOLYLINE
  5
2AF
100
AcDbEntity
  8
025-DWG
  6
CONTINUOUS
100
AcDbPolyline
 90
        5
 70
   128
 43
0.0
 10
-768.200047
 20
1096.521303
 10
-768.22532
 20
1096.617758
 10
-768.243737
 20
1096.715868
 10
-768.255582
 20
1096.815858
 10
-768.260898
 20
1096.916833
  0
LWPOLYLINE
  5
2B0
100
AcDbEntity
  8
025-DWG
  6
CONTINUOUS
100
AcDbPolyline
 90
        9
 70
   128
 43
0.0
 10
-769.198061
 20
1096.074509
 10
-769.013861
 20
1096.101158
 10
-768.838242
 20
1096.156181
 10
-768.677314
 20
1096.237663
 10
-768.536674
 20
1096.34277
 10
-768.421215
 20
1096.467846
 10
-768.334952
 20
1096.60854
 10
-768.280886
 20
1096.759958
 10
-768.260898
 20
1096.916833
  0
LWPOLYLINE
  5
2B1
100
AcDbEntity
  8
025-DWG
  6
CONTINUOUS
100
AcDbPolyline
 90
        5
 70
   128
 43
0.0
 10
-769.198061
 20
1096.074509
 10
-769.187576
 20
1095.974337
 10
-769.164221
 20
1095.874999
 10
-769.127256
 20
1095.776029
 10
-769.076503
 20
1095.678971
  0
LWPOLYLINE
  5
2B2
100
AcDbEntity
  8
025-DWG
  6
CONTINUOUS
100
AcDbPolyline
 90
        9
 70
   128
 43
0.0
 10
-769.076503
 20
1095.678971
 10
-768.920323
 20
1095.725294
 10
-768.770128
 20
1095.793417
 10
-768.630031
 20
1095.881474
 10
-768.503868
 20
1095.987052
 10
-768.395095
 20
1096.107262
 10
-768.306691
 20
1096.238811
 10
-768.241076
 20
1096.378096
 10
-768.200047
 20
1096.521303
  0
LWPOLYLINE
  5
2B3
100
AcDbEntity
  8
035-DWG
  6
CONTINUOUS
100
AcDbPolyline
 90
        7
 70
   128
 43
0.0
 10
-775.871605
 20
1122.494306
 10
-775.797328
 20
1122.540613
 10
-775.650266
 20
1122.610778
 10
-775.420766
 20
1122.696497
 10
-775.100497
 20
1122.794158
 10
-774.70078
 20
1122.898624
 10
-774.388029
 20
1122.970565
  0
LWPOLYLINE
  5
2B4
100
AcDbEntity
  8
025-DWG
  6
CONTINUOUS
100
AcDbPolyline
 90
        5
 70
   128
 43
0.0
 10
-776.316785
 20
1121.65117
 10
-776.00591
 20
1121.731441
 10
-775.45537
 20
1121.833752
 10
-774.722776
 20
1121.9468
 10
-774.372635
 20
1121.995259
  0
LWPOLYLINE
  5
2B5
100
AcDbEntity
  8
025-DWG
  6
CONTINUOUS
100
AcDbPolyline
 90
        9
 70
   128
 43
0.0
 10
-774.372741
 20
1122.971205
 10
-774.410638
 20
1122.959908
 10
-774.438857
 20
1122.909468
 10
-774.456254
 20
1122.821931
 10
-774.462123
 20
1122.70085
 10
-774.456225
 20
1122.551139
 10
-774.438799
 20
1122.378871
 10
-774.410554
 20
1122.191037
 10
-774.372635
 20
1121.995259
  0
LWPOLYLINE
  5
2B6
100
AcDbEntity
  8
025-DWG
  6
CONTINUOUS
100
AcDbPolyline
 90
        7
 70
   128
 43
0.0
 10
-775.872808
 20
1122.496543
 10
-775.99227
 20
1122.406977
 10
-776.10805
 20
1122.284927
 10
-776.200777
 20
1122.143889
 10
-776.267672
 20
1121.988087
 10
-776.306732
 20
1121.822191
 10
-776.316785
 20
1121.65117
  0
LWPOLYLINE
  5
2B7
100
AcDbEntity
  8
025-DWG
  6
CONTINUOUS
100
AcDbPolyline
 90
        5
 70
   128
 43
0.0
 10
-769.484782
 20
1115.379763
 10
-769.748506
 20
1114.912595
 10
-769.891858
 20
1114.424891
 10
-769.927971
 20
1114.136678
 10
-769.931789
 20
1113.848463
  0
LWPOLYLINE
  5
2B8
100
AcDbEntity
  8
025-DWG
  6
CONTINUOUS
100
AcDbPolyline
 90
        9
 70
   128
 43
0.0
 10
-769.931789
 20
1113.848463
 10
-769.747718
 20
1113.875222
 10
-769.572244
 20
1113.930316
 10
-769.411464
 20
1114.011832
 10
-769.270963
 20
1114.116937
 10
-769.155625
 20
1114.241979
 10
-769.069456
 20
1114.382613
 10
-769.01545
 20
1114.533953
 10
-768.995484
 20
1114.690741
  0
LWPOLYLINE
  5
2B9
100
AcDbEntity
  8
025-DWG
  6
CONTINUOUS
100
AcDbPolyline
 90
        3
 70
   128
 43
0.0
 10
-776.3828
 20
1113.80863
 10
-772.94933
 20
1114.621646
 10
-769.484782
 20
1115.379763
  0
LWPOLYLINE
  5
2BA
100
AcDbEntity
  8
025-DWG
  6
CONTINUOUS
100
AcDbPolyline
 90
        6
 70
   128
 43
0.0
 10
-768.291105
 20
1116.030943
 10
-769.103765
 20
1115.864671
 10
-770.80088
 20
1115.506681
 10
-772.492027
 20
1115.135381
 10
-774.177367
 20
1114.750772
 10
-775.856059
 20
1114.353086
  0
LWPOLYLINE
  5
2BB
100
AcDbEntity
  8
025-DWG
  6
CONTINUOUS
100
AcDbPolyline
 90
        9
 70
   128
 43
0.0
 10
-768.298847
 20
1112.490523
 10
-768.283421
 20
1112.662819
 10
-768.238354
 20
1112.829926
 10
-768.165004
 20
1112.986811
 10
-768.065579
 20
1113.128751
 10
-767.943074
 20
1113.25147
 10
-767.801178
 20
1113.351272
 10
-767.644164
 20
1113.425153
 10
-767.476761
 20
1113.470886
  0
LWPOLYLINE
  5
2BC
100
AcDbEntity
  8
025-DWG
  6
CONTINUOUS
100
AcDbPolyline
 90
        5
 70
   128
 43
0.0
 10
-767.440321
 20
1113.421616
 10
-767.477348
 20
1113.088092
 10
-767.506634
 20
1112.513771
 10
-767.52569
 20
1111.751378
 10
-767.530665
 20
1111.3172
  0
LINE
  5
2BD
100
AcDbEntity
  8
025-DWG
  6
CONTINUOUS
100
AcDbLine
 10
-768.995484
 20
1114.690741
 30
0.0
 11
-768.298847
 21
1112.490523
 31
0.0
  0
LWPOLYLINE
  5
2BE
100
AcDbEntity
  8
025-DWG
  6
CONTINUOUS
100
AcDbPolyline
 90
        6
 70
   128
 43
0.0
 10
-768.298847
 20
1112.490523
 10
-768.285538
 20
1112.358927
 10
-768.274109
 20
1112.06785
 10
-768.265627
 20
1111.64208
 10
-768.261295
 20
1111.129151
 10
-768.260898
 20
1110.913618
  0
LINE
  5
2BF
100
AcDbEntity
  8
025-DWG
  6
CONTINUOUS
100
AcDbLine
 10
-768.260898
 20
1110.913618
 30
0.0
 11
-767.513256
 21
1110.913618
 31
0.0
  0
LWPOLYLINE
  5
2C0
100
AcDbEntity
  8
025-DWG
  6
CONTINUOUS
100
AcDbPolyline
 90
        5
 70
   128
 43
0.0
 10
-767.530665
 20
1111.3172
 10
-767.530171
 20
1111.217134
 10
-767.527175
 20
1111.116519
 10
-767.521566
 20
1111.01517
 10
-767.513256
 20
1110.913618
  0
LWPOLYLINE
  5
2C1
100
AcDbEntity
  8
025-DWG
  6
CONTINUOUS
100
AcDbPolyline
 90
        5
 70
   128
 43
0.0
 10
-767.440321
 20
1113.421616
 10
-767.449688
 20
1113.438497
 10
-767.458885
 20
1113.452352
 10
-767.46792
 20
1113.46317
 10
-767.476761
 20
1113.470886
  0
LWPOLYLINE
  5
2C2
100
AcDbEntity
  8
025-DWG
  6
CONTINUOUS
100
AcDbPolyline
 90
        7
 70
   128
 43
0.0
 10
-768.995484
 20
1114.690741
 10
-768.999699
 20
1114.857368
 10
-768.986874
 20
1115.025356
 10
-768.954896
 20
1115.195132
 10
-768.900112
 20
1115.366196
 10
-768.857466
 20
1115.461857
 10
-768.80384
 20
1115.557791
  0
LWPOLYLINE
  5
2C3
100
AcDbEntity
  8
025-DWG
  6
CONTINUOUS
100
AcDbPolyline
 90
        9
 70
   128
 43
0.0
 10
-769.484782
 20
1115.379763
 10
-769.385348
 20
1115.367676
 10
-769.287825
 20
1115.365647
 10
-769.193359
 20
1115.373698
 10
-769.103063
 20
1115.391734
 10
-769.018
 20
1115.419544
 10
-768.93917
 20
1115.4568
 10
-768.867502
 20
1115.503064
 10
-768.80384
 20
1115.557791
  0
LWPOLYLINE
  5
2C4
100
AcDbEntity
  8
025-DWG
  6
CONTINUOUS
100
AcDbPolyline
 90
        6
 70
   128
 43
0.0
 10
-768.291105
 20
1116.030943
 10
-768.297704
 20
1116.029053
 10
-768.608329
 20
1115.921981
 10
-768.911195
 20
1115.780546
 10
-769.206272
 20
1115.600568
 10
-769.484782
 20
1115.379763
  0
LINE
  5
2C5
100
AcDbEntity
  8
025-DWG
  6
CONTINUOUS
100
AcDbLine
 10
-767.476761
 20
1113.470886
 30
0.0
 11
-768.291105
 21
1116.030943
 31
0.0
  0
LWPOLYLINE
  5
2C6
100
AcDbEntity
  8
025-DWG
  6
CONTINUOUS
100
AcDbPolyline
 90
        6
 70
   128
 43
0.0
 10
-768.80384
 20
1115.557791
 10
-768.690988
 20
1115.713579
 10
-768.567175
 20
1115.842886
 10
-768.434119
 20
1115.94817
 10
-768.29445
 20
1116.029327
 10
-768.291105
 20
1116.030943
  0
LWPOLYLINE
  5
2C7
100
AcDbEntity
  8
025-DWG
  6
CONTINUOUS
100
AcDbPolyline
 90
        5
 70
   128
 43
0.0
 10
-774.372635
 20
1116.136774
 10
-775.161489
 20
1116.020329
 10
-775.802798
 20
1115.908957
 10
-776.22236
 20
1115.816063
 10
-776.316785
 20
1115.786471
  0
LINE
  5
2C8
100
AcDbEntity
  8
025-DWG
  6
CONTINUOUS
100
AcDbLine
 10
-775.856059
 20
1114.353086
 30
0.0
 11
-775.128123
 21
1114.8126
 31
0.0
  0
LWPOLYLINE
  5
2C9
100
AcDbEntity
  8
025-DWG
  6
CONTINUOUS
100
AcDbPolyline
 90
        9
 70
   128
 43
0.0
 10
-776.316785
 20
1115.786471
 10
-776.287334
 20
1115.570062
 10
-776.212144
 20
1115.364086
 10
-776.094841
 20
1115.178474
 10
-775.941079
 20
1115.022175
 10
-775.758273
 20
1114.902724
 10
-775.555235
 20
1114.82588
 10
-775.341754
 20
1114.795348
 10
-775.128123
 20
1114.8126
  0
LWPOLYLINE
  5
2CA
100
AcDbEntity
  8
025-DWG
  6
CONTINUOUS
100
AcDbPolyline
 90
        5
 70
   128
 43
0.0
 10
-775.128123
 20
1114.8126
 10
-774.940856
 20
1114.894258
 10
-774.610668
 20
1114.998288
 10
-774.168049
 20
1115.114356
 10
-773.966633
 20
1115.161843
  0
LWPOLYLINE
  5
2CB
100
AcDbEntity
  8
025-DWG
  6
CONTINUOUS
100
AcDbPolyline
 90
        9
 70
   128
 43
0.0
 10
-774.372635
 20
1116.136774
 10
-774.328312
 20
1115.951475
 10
-774.278307
 20
1115.77292
 10
-774.224439
 20
1115.607605
 10
-774.168667
 20
1115.461547
 10
-774.113022
 20
1115.34006
 10
-774.059529
 20
1115.247566
 10
-774.010133
 20
1115.187431
 10
-773.966633
 20
1115.161843
  0
LWPOLYLINE
  5
2CC
100
AcDbEntity
  8
025-DWG
  6
CONTINUOUS
100
AcDbPolyline
 90
        9
 70
   128
 43
0.0
 10
-775.856059
 20
1114.353086
 10
-776.069998
 20
1114.335166
 10
-776.283923
 20
1114.3652
 10
-776.487483
 20
1114.441733
 10
-776.67083
 20
1114.561064
 10
-776.825093
 20
1114.717418
 10
-776.942807
 20
1114.90323
 10
-777.018278
 20
1115.109511
 10
-777.047855
 20
1115.32628
  0
LWPOLYLINE
  5
2CD
100
AcDbEntity
  8
025-DWG
  6
CONTINUOUS
100
AcDbPolyline
 90
        5
 70
   128
 43
0.0
 10
-777.047855
 20
1115.32628
 10
-777.199982
 20
1115.165697
 10
-777.34858
 20
1114.875755
 10
-777.390074
 20
1114.768158
 10
-777.430513
 20
1114.65056
  0
LWPOLYLINE
  5
2CE
100
AcDbEntity
  8
025-DWG
  6
CONTINUOUS
100
AcDbPolyline
 90
        6
 70
   128
 43
0.0
 10
-776.3828
 20
1113.80863
 10
-776.274146
 20
1113.971149
 10
-776.16235
 20
1114.110436
 10
-776.04638
 20
1114.226211
 10
-775.928571
 20
1114.314136
 10
-775.856059
 20
1114.353086
  0
LWPOLYLINE
  5
2CF
100
AcDbEntity
  8
025-DWG
  6
CONTINUOUS
100
AcDbPolyline
 90
        9
 70
   128
 43
0.0
 10
-776.3828
 20
1113.80863
 10
-776.570452
 20
1113.830842
 10
-776.75381
 20
1113.882851
 10
-776.926212
 20
1113.962766
 10
-777.081388
 20
1114.067683
 10
-777.213699
 20
1114.193787
 10
-777.318335
 20
1114.336496
 10
-777.391493
 20
1114.490621
 10
-777.430513
 20
1114.65056
  0
LINE
  5
2D0
100
AcDbEntity
  8
025-DWG
  6
CONTINUOUS
100
AcDbLine
 10
-776.316785
 20
1115.786471
 30
0.0
 11
-777.047855
 21
1115.32628
 31
0.0
  0
LWPOLYLINE
  5
2D1
100
AcDbEntity
  8
035-DWG
  6
CONTINUOUS
100
AcDbPolyline
 90
        5
 70
   128
 43
0.0
 10
-788.42508
 20
1113.782739
 10
-788.377525
 20
1114.079426
 10
-788.244071
 20
1114.350578
 10
-788.014023
 20
1114.600572
 10
-787.920275
 20
1114.655297
  0
LINE
  5
2D2
100
AcDbEntity
  8
025-DWG
  6
CONTINUOUS
100
AcDbLine
 10
-776.316785
 20
1121.65117
 30
0.0
 11
-776.316785
 21
1115.786471
 31
0.0
  0
LINE
  5
2D3
100
AcDbEntity
  8
025-DWG
  6
CONTINUOUS
100
AcDbLine
 10
-774.372635
 20
1116.136774
 30
0.0
 11
-774.372635
 21
1121.995259
 31
0.0
  0
LWPOLYLINE
  5
2D4
100
AcDbEntity
  8
035-DWG
  6
CONTINUOUS
100
AcDbPolyline
 90
        3
 70
   128
 43
0.0
 10
-787.925472
 20
1114.6643
 10
-781.992148
 20
1118.603637
 10
-775.865998
 20
1122.50081
  0
LWPOLYLINE
  5
2D5
100
AcDbEntity
  8
025-DWG
  6
CONTINUOUS
100
AcDbPolyline
 90
        3
 70
   128
 43
0.0
 10
-788.42508
 20
1113.782739
 10
-782.389637
 20
1117.788378
 10
-776.316785
 20
1121.65117
  0
LINE
  5
2D6
100
AcDbEntity
  8
025-DWG
  6
CONTINUOUS
100
AcDbLine
 10
-761.533497
 20
1116.525341
 30
0.0
 11
-761.497714
 21
1116.521712
 31
0.0
  0
LWPOLYLINE
  5
2D7
100
AcDbEntity
  8
025-DWG
  6
CONTINUOUS
100
AcDbPolyline
 90
        8
 70
   128
 43
0.0
 10
-765.518544
 20
1114.639501
 10
-765.520556
 20
1114.626684
 10
-765.5606
 20
1114.302843
 10
-765.601713
 20
1113.872787
 10
-765.639182
 20
1113.355821
 10
-765.670702
 20
1112.758039
 10
-765.69367
 20
1112.104096
 10
-765.702071
 20
1111.659225
  0
LWPOLYLINE
  5
2D8
100
AcDbEntity
  8
025-DWG
  6
CONTINUOUS
100
AcDbPolyline
 90
        5
 70
   128
 43
0.0
 10
-765.031662
 20
1110.192786
 10
-764.682314
 20
1109.974277
 10
-764.240643
 20
1109.82357
 10
-763.759341
 20
1109.773133
 10
-763.378341
 20
1109.818425
  0
LWPOLYLINE
  5
2D9
100
AcDbEntity
  8
035-DWG
  6
CONTINUOUS
100
AcDbPolyline
 90
        6
 70
   128
 43
0.0
 10
-767.059428
 20
1108.205385
 10
-766.401145
 20
1107.790905
 10
-765.661255
 20
1107.487859
 10
-764.904953
 20
1107.318821
 10
-764.110422
 20
1107.27509
 10
-763.397196
 20
1107.347589
  0
LWPOLYLINE
  5
2DA
100
AcDbEntity
  8
025-DWG
  6
CONTINUOUS
100
AcDbPolyline
 90
        9
 70
   128
 43
0.0
 10
-763.397196
 20
1107.347589
 10
-763.47361
 20
1107.844619
 10
-763.527969
 20
1108.321187
 10
-763.558036
 20
1108.75767
 10
-763.562571
 20
1109.136098
 10
-763.541389
 20
1109.440893
 10
-763.495361
 20
1109.659503
 10
-763.426382
 20
1109.78293
 10
-763.376386
 20
1109.808823
  0
LWPOLYLINE
  5
2DB
100
AcDbEntity
  8
025-DWG
  6
CONTINUOUS
100
AcDbPolyline
 90
        5
 70
   128
 43
0.0
 10
-765.676966
 20
1111.335321
 10
-765.567034
 20
1110.92597
 10
-765.360406
 20
1110.53563
 10
-765.179127
 20
1110.317604
 10
-765.030708
 20
1110.191269
  0
LWPOLYLINE
  5
2DC
100
AcDbEntity
  8
025-DWG
  6
CONTINUOUS
100
AcDbPolyline
 90
        3
 70
   128
 43
0.0
 10
-765.696263
 20
1111.658922
 10
-765.70201
 20
1111.556671
 10
-765.671542
 20
1111.333036
  0
LWPOLYLINE
  5
2DD
100
AcDbEntity
  8
025-DWG
  6
CONTINUOUS
100
AcDbPolyline
 90
        9
 70
   128
 43
0.0
 10
-767.059428
 20
1108.205385
 10
-766.710238
 20
1108.661498
 10
-766.352847
 20
1109.093529
 10
-766.006123
 20
1109.478666
 10
-765.688374
 20
1109.796576
 10
-765.416377
 20
1110.030473
 10
-765.204492
 20
1110.168007
 10
-765.063906
 20
1110.201917
 10
-765.032739
 20
1110.188574
  0
LINE
  5
2DE
100
AcDbEntity
  8
025-DWG
  6
CONTINUOUS
100
AcDbLine
 10
-765.98742
 20
1114.167403
 30
0.0
 11
-765.950065
 21
1114.204496
 31
0.0
  0
LINE
  5
2DF
100
AcDbEntity
  8
025-DWG
  6
CONTINUOUS
100
AcDbLine
 10
-765.26018
 20
1115.57125
 30
0.0
 11
-767.288651
 21
1113.508177
 31
0.0
  0
LWPOLYLINE
  5
2E0
100
AcDbEntity
  8
025-DWG
  6
CONTINUOUS
100
AcDbPolyline
 90
        5
 70
   128
 43
0.0
 10
-767.288651
 20
1113.508177
 10
-766.868451
 20
1113.61816
 10
-766.474705
 20
1113.799988
 10
-766.119496
 20
1114.04808
 10
-765.98742
 20
1114.167403
  0
LINE
  5
2E1
100
AcDbEntity
  8
025-DWG
  6
CONTINUOUS
100
AcDbLine
 10
-764.237972
 20
1115.930419
 30
0.0
 11
-765.950277
 21
1114.204281
 31
0.0
  0
LWPOLYLINE
  5
2E2
100
AcDbEntity
  8
025-DWG
  6
CONTINUOUS
100
AcDbPolyline
 90
        3
 70
   128
 43
0.0
 10
-765.26018
 20
1115.57125
 10
-764.836397
 20
1115.678425
 10
-764.471856
 20
1115.840222
  0
LWPOLYLINE
  5
2E3
100
AcDbEntity
  8
025-DWG
  6
CONTINUOUS
100
AcDbPolyline
 90
       10
 70
   128
 43
0.0
 10
-761.496181
 20
1116.520563
 10
-761.805672
 20
1116.468607
 10
-762.425846
 20
1116.353732
 10
-763.003355
 20
1116.23596
 10
-763.510368
 20
1116.121907
 10
-763.934418
 20
1116.015913
 10
-764.221929
 20
1115.935475
 10
-764.402323
 20
1115.878618
 10
-764.479376
 20
1115.851035
 10
-764.476102
 20
1115.852579
  0
LWPOLYLINE
  5
2E4
100
AcDbEntity
  8
025-DWG
  6
CONTINUOUS
100
AcDbPolyline
 90
        8
 70
   128
 43
0.0
 10
-761.533497
 20
1116.525341
 10
-762.268869
 20
1116.39441
 10
-762.961253
 20
1116.257358
 10
-763.590352
 20
1116.118562
 10
-764.140307
 20
1115.982407
 10
-764.598392
 20
1115.852272
 10
-764.947792
 20
1115.733541
 10
-765.26018
 20
1115.57125
  0
ARC
  5
2E5
100
AcDbEntity
  8
035-DWG
100
AcDbCircle
 10
-748.437898
 20
1169.483442
 30
0.0
 40
18.444262
100
AcDbArc
 50
140.036069
 51
183.153123
  0
ARC
  5
2E6
100
AcDbEntity
  8
035-DWG
100
AcDbCircle
 10
-746.668755
 20
1180.92981
 30
0.0
 40
0.5
100
AcDbArc
 50
90.0
 51
160.17523
  0
ARC
  5
2E7
100
AcDbEntity
  8
025-DWG
100
AcDbCircle
 10
-747.185845
 20
1180.812827
 30
0.0
 40
1.2
100
AcDbArc
 50
90.0
 51
160.052817
  0
ARC
  5
2E8
100
AcDbEntity
  8
035-DWG
100
AcDbCircle
 10
-752.861647
 20
1168.764305
 30
0.0
 40
1.2
100
AcDbArc
 50
268.746259
 51
340.17523
  0
ARC
  5
2E9
100
AcDbEntity
  8
035-DWG
100
AcDbCircle
 10
-753.41125
 20
1168.642576
 30
0.0
 40
0.5
100
AcDbArc
 50
268.608709
 51
340.052817
  0
ARC
  5
2EA
100
AcDbEntity
  8
035-DWG
100
AcDbCircle
 10
-753.432882
 20
1181.718692
 30
0.0
 40
0.5
100
AcDbArc
 50
269.300356
 51
343.05446
  0
LINE
  5
2EB
100
AcDbEntity
  8
025-DWG
100
AcDbLine
 10
-753.42339
 20
1168.142723
 30
0.0
 11
-753.438987
 21
1181.218729
 31
0.0
  0
LINE
  5
2EC
100
AcDbEntity
  8
025-DWG
100
AcDbLine
 10
-752.941246
 20
1168.471999
 30
0.0
 11
-752.954591
 21
1181.57296
 31
0.0
  0
LINE
  5
2ED
100
AcDbEntity
  8
035-DWG
100
AcDbLine
 10
-751.732766
 20
1168.357332
 30
0.0
 11
-747.139122
 21
1181.099382
 31
0.0
  0
LINE
  5
2EE
100
AcDbEntity
  8
025-DWG
100
AcDbLine
 10
-752.941246
 20
1168.471999
 30
0.0
 11
-748.313854
 21
1181.222212
 31
0.0
  0
LINE
  5
2EF
100
AcDbEntity
  8
035-DWG
100
AcDbLine
 10
-762.574483
 20
1181.330289
 30
0.0
 11
-753.438987
 21
1181.218729
 31
0.0
  0
LINE
  5
2F0
100
AcDbEntity
  8
035-DWG
100
AcDbLine
 10
-766.854237
 20
1167.870251
 30
0.0
 11
-766.854237
 21
1168.468923
 31
0.0
  0
LINE
  5
2F1
100
AcDbEntity
  8
035-DWG
100
AcDbLine
 10
-766.854237
 20
1167.870251
 30
0.0
 11
-752.887904
 21
1167.564592
 31
0.0
  0
LINE
  5
2F2
100
AcDbEntity
  8
025-DWG
100
AcDbLine
 10
-766.854237
 20
1168.468923
 30
0.0
 11
-753.42339
 21
1168.142723
 31
0.0
  0
LWPOLYLINE
  5
2F3
100
AcDbEntity
  8
025-DWG
  6
CONTINUOUS
100
AcDbPolyline
 90
        9
 70
   128
 43
0.0
 10
-683.26099
 20
1096.075161
 10
-683.44519
 20
1096.101809
 10
-683.62081
 20
1096.156831
 10
-683.78174
 20
1096.238313
 10
-683.922381
 20
1096.34342
 10
-684.037841
 20
1096.468496
 10
-684.124105
 20
1096.609191
 10
-684.178171
 20
1096.76061
 10
-684.198159
 20
1096.917486
  0
LWPOLYLINE
  5
2F4
100
AcDbEntity
  8
025-DWG
  6
CONTINUOUS
100
AcDbPolyline
 90
        5
 70
   128
 43
0.0
 10
-683.382549
 20
1095.679618
 10
-683.332889
 20
1095.77424
 10
-683.296037
 20
1095.871694
 10
-683.271899
 20
1095.972499
 10
-683.26099
 20
1096.075161
  0
LWPOLYLINE
  5
2F5
100
AcDbEntity
  8
025-DWG
  6
CONTINUOUS
100
AcDbPolyline
 90
        9
 70
   128
 43
0.0
 10
-682.527296
 20
1113.848364
 10
-682.711367
 20
1113.875122
 10
-682.886842
 20
1113.930217
 10
-683.047623
 20
1114.011732
 10
-683.188124
 20
1114.116837
 10
-683.303463
 20
1114.241879
 10
-683.389633
 20
1114.382513
 10
-683.443639
 20
1114.533854
 10
-683.463605
 20
1114.690642
  0
LWPOLYLINE
  5
2F6
100
AcDbEntity
  8
025-DWG
  6
CONTINUOUS
100
AcDbPolyline
 90
        9
 70
   128
 43
0.0
 10
-682.974298
 20
1115.37966
 10
-683.073732
 20
1115.367574
 10
-683.171257
 20
1115.365544
 10
-683.265724
 20
1115.373595
 10
-683.356021
 20
1115.391632
 10
-683.441085
 20
1115.419442
 10
-683.519916
 20
1115.456699
 10
-683.591584
 20
1115.502963
 10
-683.655248
 20
1115.557691
  0
LWPOLYLINE
  5
2F7
100
AcDbEntity
  8
025-DWG
  6
CONTINUOUS
100
AcDbPolyline
 90
        6
 70
   128
 43
0.0
 10
-682.974298
 20
1115.37966
 10
-683.243341
 20
1115.593875
 10
-683.532522
 20
1115.772186
 10
-683.841109
 20
1115.917969
 10
-684.161384
 20
1116.028958
 10
-684.167983
 20
1116.030847
  0
LWPOLYLINE
  5
2F8
100
AcDbEntity
  8
025-DWG
  6
CONTINUOUS
100
AcDbPolyline
 90
        6
 70
   128
 43
0.0
 10
-676.602748
 20
1114.352928
 10
-678.280257
 20
1114.750336
 10
-679.964917
 20
1115.134803
 10
-681.656889
 20
1115.506298
 10
-683.355324
 20
1115.864574
 10
-684.167983
 20
1116.030847
  0
LWPOLYLINE
  5
2F9
100
AcDbEntity
  8
025-DWG
  6
CONTINUOUS
100
AcDbPolyline
 90
        3
 70
   128
 43
0.0
 10
-683.463605
 20
1114.690642
 10
-683.830883
 20
1105.804131
 10
-684.198159
 20
1096.917486
  0
LINE
  5
2FA
100
AcDbEntity
  8
025-DWG
  6
CONTINUOUS
100
AcDbLine
 10
-684.198159
 20
1096.917486
 30
0.0
 11
-684.198159
 21
1110.913618
 31
0.0
  0
LWPOLYLINE
  5
2FB
100
AcDbEntity
  8
025-DWG
  6
CONTINUOUS
100
AcDbPolyline
 90
        5
 70
   128
 43
0.0
 10
-684.198159
 20
1096.917486
 10
-684.203358
 20
1096.817906
 10
-684.214979
 20
1096.718773
 10
-684.233421
 20
1096.619827
 10
-684.259011
 20
1096.52195
  0
LWPOLYLINE
  5
2FC
100
AcDbEntity
  8
025-DWG
  6
CONTINUOUS
100
AcDbPolyline
 90
        9
 70
   128
 43
0.0
 10
-683.382549
 20
1095.679618
 10
-683.538729
 20
1095.725941
 10
-683.688925
 20
1095.794064
 10
-683.829023
 20
1095.88212
 10
-683.955187
 20
1095.987699
 10
-684.063961
 20
1096.107909
 10
-684.152367
 20
1096.239458
 10
-684.217982
 20
1096.378743
 10
-684.259011
 20
1096.52195
  0
LWPOLYLINE
  5
2FD
100
AcDbEntity
  8
025-DWG
  6
CONTINUOUS
100
AcDbPolyline
 90
       10
 70
   128
 43
0.0
 10
-687.982148
 20
1115.852112
 10
-687.985573
 20
1115.853322
 10
-688.064568
 20
1115.881329
 10
-688.236737
 20
1115.935429
 10
-688.509691
 20
1116.011953
 10
-688.891616
 20
1116.108285
 10
-689.364573
 20
1116.216277
 10
-689.91837
 20
1116.331191
 10
-690.526438
 20
1116.445992
 10
-690.962774
 20
1116.520741
  0
LWPOLYLINE
  5
2FE
100
AcDbEntity
  8
025-DWG
  6
CONTINUOUS
100
AcDbPolyline
 90
        5
 70
   128
 43
0.0
 10
-689.081131
 20
1109.818324
 10
-688.704722
 20
1109.773424
 10
-688.226541
 20
1109.8218
 10
-687.779779
 20
1109.972995
 10
-687.424968
 20
1110.194897
  0
LWPOLYLINE
  5
2FF
100
AcDbEntity
  8
035-DWG
  6
CONTINUOUS
100
AcDbPolyline
 90
        6
 70
   128
 43
0.0
 10
-689.061862
 20
1107.347589
 10
-688.254085
 20
1107.273405
 10
-687.423131
 20
1107.338872
 10
-686.637818
 20
1107.540952
 10
-685.876697
 20
1107.889552
 10
-685.39963
 20
1108.205385
  0
LWPOLYLINE
  5
300
100
AcDbEntity
  8
025-DWG
  6
CONTINUOUS
100
AcDbPolyline
 90
        8
 70
   128
 43
0.0
 10
-687.198878
 20
1115.57125
 10
-687.342684
 20
1115.661711
 10
-687.609464
 20
1115.769704
 10
-687.9925
 20
1115.891845
 10
-688.479373
 20
1116.023983
 10
-689.061886
 20
1116.162825
 10
-689.719775
 20
1116.302919
 10
-690.92556
 20
1116.525341
  0
LWPOLYLINE
  5
301
100
AcDbEntity
  8
025-DWG
  6
CONTINUOUS
100
AcDbPolyline
 90
        8
 70
   128
 43
0.0
 10
-686.756945
 20
1111.659513
 10
-686.760018
 20
1111.882994
 10
-686.780018
 20
1112.554403
 10
-686.809781
 20
1113.186187
 10
-686.847526
 20
1113.751238
 10
-686.891144
 20
1114.234479
 10
-686.936048
 20
1114.609084
 10
-686.940825
 20
1114.639816
  0
LWPOLYLINE
  5
302
100
AcDbEntity
  8
025-DWG
  6
CONTINUOUS
100
AcDbPolyline
 90
        9
 70
   128
 43
0.0
 10
-684.160211
 20
1112.490523
 10
-684.175637
 20
1112.662819
 10
-684.220703
 20
1112.829926
 10
-684.294053
 20
1112.986811
 10
-684.393478
 20
1113.128751
 10
-684.515983
 20
1113.25147
 10
-684.65788
 20
1113.351272
 10
-684.814894
 20
1113.425153
 10
-684.982297
 20
1113.470886
  0
LINE
  5
303
100
AcDbEntity
  8
025-DWG
  6
CONTINUOUS
100
AcDbLine
 10
-684.160211
 20
1112.490523
 30
0.0
 11
-683.463605
 21
1114.690642
 31
0.0
  0
LWPOLYLINE
  5
304
100
AcDbEntity
  8
025-DWG
  6
CONTINUOUS
100
AcDbPolyline
 90
        5
 70
   128
 43
0.0
 10
-684.928392
 20
1111.3172
 10
-684.941071
 20
1112.136128
 10
-684.965501
 20
1112.819484
 10
-684.999725
 20
1113.290409
 10
-685.018737
 20
1113.421616
  0
LWPOLYLINE
  5
305
100
AcDbEntity
  8
025-DWG
  6
CONTINUOUS
100
AcDbPolyline
 90
        6
 70
   128
 43
0.0
 10
-687.428139
 20
1110.192093
 10
-687.31493
 20
1110.283591
 10
-687.155728
 20
1110.459063
 10
-686.979738
 20
1110.733166
 10
-686.831205
 20
1111.109693
 10
-686.793691
 20
1111.335246
  0
LWPOLYLINE
  5
306
100
AcDbEntity
  8
025-DWG
  6
CONTINUOUS
100
AcDbPolyline
 90
        3
 70
   128
 43
0.0
 10
-686.787462
 20
1111.332611
 10
-686.758775
 20
1111.521428
 10
-686.762913
 20
1111.658094
  0
LWPOLYLINE
  5
307
100
AcDbEntity
  8
025-DWG
  6
CONTINUOUS
100
AcDbPolyline
 90
        6
 70
   128
 43
0.0
 10
-684.198159
 20
1110.913618
 10
-684.195815
 20
1111.43318
 10
-684.189137
 20
1111.894091
 10
-684.178694
 20
1112.252684
 10
-684.165672
 20
1112.458713
 10
-684.160211
 20
1112.490523
  0
LWPOLYLINE
  5
308
100
AcDbEntity
  8
025-DWG
  6
CONTINUOUS
100
AcDbPolyline
 90
        5
 70
   128
 43
0.0
 10
-684.945802
 20
1110.913618
 10
-684.937553
 20
1111.014269
 10
-684.931944
 20
1111.115087
 10
-684.928902
 20
1111.216246
 10
-684.928392
 20
1111.3172
  0
LINE
  5
309
100
AcDbEntity
  8
025-DWG
  6
CONTINUOUS
100
AcDbLine
 10
-684.198159
 20
1110.913618
 30
0.0
 11
-684.945802
 21
1110.913618
 31
0.0
  0
LWPOLYLINE
  5
30A
100
AcDbEntity
  8
025-DWG
  6
CONTINUOUS
100
AcDbPolyline
 90
        9
 70
   128
 43
0.0
 10
-686.755772
 20
1111.659554
 10
-686.749386
 20
1111.634349
 10
-686.679933
 20
1111.568292
 10
-686.536235
 20
1111.506346
 10
-686.322694
 20
1111.450408
 10
-686.04585
 20
1111.402192
 10
-685.714184
 20
1111.363175
 10
-685.337855
 20
1111.334552
 10
-684.928392
 20
1111.3172
  0
LWPOLYLINE
  5
30B
100
AcDbEntity
  8
025-DWG
  6
CONTINUOUS
100
AcDbPolyline
 90
        9
 70
   128
 43
0.0
 10
-687.426632
 20
1110.188333
 10
-687.395151
 20
1110.201917
 10
-687.254566
 20
1110.168007
 10
-687.042681
 20
1110.030473
 10
-686.770683
 20
1109.796576
 10
-686.452934
 20
1109.478666
 10
-686.106211
 20
1109.093529
 10
-685.748819
 20
1108.661498
 10
-685.39963
 20
1108.205385
  0
LWPOLYLINE
  5
30C
100
AcDbEntity
  8
025-DWG
  6
CONTINUOUS
100
AcDbPolyline
 90
        5
 70
   128
 43
0.0
 10
-685.39963
 20
1108.205385
 10
-685.163025
 20
1109.066088
 10
-685.022453
 20
1109.965207
 10
-684.976321
 20
1110.438492
 10
-684.945802
 20
1110.913618
  0
LWPOLYLINE
  5
30D
100
AcDbEntity
  8
025-DWG
  6
CONTINUOUS
100
AcDbPolyline
 90
        9
 70
   128
 43
0.0
 10
-686.780241
 20
1111.333468
 10
-686.777117
 20
1111.32602
 10
-686.714559
 20
1111.295681
 10
-686.574396
 20
1111.252982
 10
-686.361164
 20
1111.199305
 10
-686.08176
 20
1111.136385
 10
-685.745225
 20
1111.066258
 10
-685.362444
 20
1110.991193
 10
-684.945802
 20
1110.913618
  0
LINE
  5
30E
100
AcDbEntity
  8
025-DWG
  6
CONTINUOUS
100
AcDbLine
 10
-685.170407
 20
1113.508177
 30
0.0
 11
-687.198878
 21
1115.57125
 31
0.0
  0
LINE
  5
30F
100
AcDbEntity
  8
025-DWG
  6
CONTINUOUS
100
AcDbLine
 10
-684.982297
 20
1113.470886
 30
0.0
 11
-685.170407
 21
1113.508177
 31
0.0
  0
LWPOLYLINE
  5
310
100
AcDbEntity
  8
025-DWG
  6
CONTINUOUS
100
AcDbPolyline
 90
        7
 70
   128
 43
0.0
 10
-683.655248
 20
1115.557691
 10
-683.567486
 20
1115.387017
 10
-683.509672
 20
1115.216267
 10
-683.474914
 20
1115.045043
 10
-683.459903
 20
1114.874629
 10
-683.459249
 20
1114.782466
 10
-683.463605
 20
1114.690642
  0
LWPOLYLINE
  5
311
100
AcDbEntity
  8
025-DWG
  6
CONTINUOUS
100
AcDbPolyline
 90
        5
 70
   128
 43
0.0
 10
-686.508376
 20
1114.203871
 10
-686.339562
 20
1114.04808
 10
-685.984353
 20
1113.799988
 10
-685.590607
 20
1113.61816
 10
-685.170407
 20
1113.508177
  0
LWPOLYLINE
  5
312
100
AcDbEntity
  8
025-DWG
  6
CONTINUOUS
100
AcDbPolyline
 90
        5
 70
   128
 43
0.0
 10
-684.982297
 20
1113.470886
 10
-684.991082
 20
1113.463228
 10
-685.000083
 20
1113.452474
 10
-685.009312
 20
1113.438592
 10
-685.018737
 20
1113.421616
  0
LWPOLYLINE
  5
313
100
AcDbEntity
  8
025-DWG
  6
CONTINUOUS
100
AcDbPolyline
 90
        5
 70
   128
 43
0.0
 10
-685.018737
 20
1113.421616
 10
-685.056936
 20
1113.447826
 10
-685.094949
 20
1113.471032
 10
-685.132808
 20
1113.49119
 10
-685.170407
 20
1113.508177
  0
LWPOLYLINE
  5
314
100
AcDbEntity
  8
025-DWG
  6
CONTINUOUS
100
AcDbPolyline
 90
        5
 70
   128
 43
0.0
 10
-686.417323
 20
1114.078445
 10
-686.236887
 20
1113.922031
 10
-685.866022
 20
1113.683225
 10
-685.455503
 20
1113.514584
 10
-685.018737
 20
1113.421616
  0
LINE
  5
315
100
AcDbEntity
  8
025-DWG
  6
CONTINUOUS
100
AcDbLine
 10
-686.508781
 20
1114.204281
 30
0.0
 11
-688.221219
 21
1115.930553
 31
0.0
  0
LINE
  5
316
100
AcDbEntity
  8
025-DWG
  6
CONTINUOUS
100
AcDbLine
 10
-684.167983
 20
1116.030847
 30
0.0
 11
-684.982297
 21
1113.470886
 31
0.0
  0
LWPOLYLINE
  5
317
100
AcDbEntity
  8
025-DWG
  6
CONTINUOUS
100
AcDbPolyline
 90
        6
 70
   128
 43
0.0
 10
-684.167983
 20
1116.030847
 10
-684.164638
 20
1116.029231
 10
-684.026911
 20
1115.949395
 10
-683.894955
 20
1115.845547
 10
-683.769937
 20
1115.715672
 10
-683.655248
 20
1115.557691
  0
LWPOLYLINE
  5
318
100
AcDbEntity
  8
025-DWG
  6
CONTINUOUS
100
AcDbPolyline
 90
        3
 70
   128
 43
0.0
 10
-687.996457
 20
1115.845293
 10
-687.622661
 20
1115.678425
 10
-687.198878
 20
1115.57125
  0
LWPOLYLINE
  5
319
100
AcDbEntity
  8
025-DWG
  6
CONTINUOUS
100
AcDbPolyline
 90
        9
 70
   128
 43
0.0
 10
-689.084614
 20
1109.809108
 10
-689.032675
 20
1109.78293
 10
-688.963697
 20
1109.659503
 10
-688.917669
 20
1109.440893
 10
-688.896487
 20
1109.136098
 10
-688.901022
 20
1108.75767
 10
-688.931088
 20
1108.321187
 10
-688.985448
 20
1107.844619
 10
-689.061862
 20
1107.347589
  0
LINE
  5
31A
100
AcDbEntity
  8
025-DWG
  6
CONTINUOUS
100
AcDbLine
 10
-690.963258
 20
1116.522093
 30
0.0
 11
-690.92556
 21
1116.525341
 31
0.0
  0
LWPOLYLINE
  5
31B
100
AcDbEntity
  8
035-DWG
  6
CONTINUOUS
100
AcDbPolyline
 90
        7
 70
   128
 43
0.0
 10
-678.071121
 20
1122.970684
 10
-677.966094
 20
1122.9479
 10
-677.567395
 20
1122.850543
 10
-677.213314
 20
1122.75196
 10
-676.904262
 20
1122.648898
 10
-676.719004
 20
1122.57001
 10
-676.586616
 20
1122.493543
  0
LWPOLYLINE
  5
31C
100
AcDbEntity
  8
025-DWG
  6
CONTINUOUS
100
AcDbPolyline
 90
        9
 70
   128
 43
0.0
 10
-678.086317
 20
1122.971205
 10
-678.04842
 20
1122.959908
 10
-678.0202
 20
1122.909468
 10
-678.002803
 20
1122.821931
 10
-677.996935
 20
1122.70085
 10
-678.002833
 20
1122.551139
 10
-678.020258
 20
1122.378871
 10
-678.048503
 20
1122.191037
 10
-678.086423
 20
1121.995259
  0
LINE
  5
31D
100
AcDbEntity
  8
025-DWG
  6
CONTINUOUS
100
AcDbLine
 10
-677.330934
 20
1114.8126
 30
0.0
 11
-676.602748
 21
1114.352928
 31
0.0
  0
LWPOLYLINE
  5
31E
100
AcDbEntity
  8
025-DWG
  6
CONTINUOUS
100
AcDbPolyline
 90
        5
 70
   128
 43
0.0
 10
-678.492424
 20
1115.161843
 10
-678.015367
 20
1115.044288
 10
-677.629422
 20
1114.932033
 10
-677.380093
 20
1114.83877
 10
-677.330934
 20
1114.8126
  0
LWPOLYLINE
  5
31F
100
AcDbEntity
  8
025-DWG
  6
CONTINUOUS
100
AcDbPolyline
 90
        9
 70
   128
 43
0.0
 10
-678.086423
 20
1116.136774
 10
-678.130745
 20
1115.951475
 10
-678.18075
 20
1115.77292
 10
-678.234619
 20
1115.607605
 10
-678.29039
 20
1115.461547
 10
-678.346035
 20
1115.34006
 10
-678.399529
 20
1115.247566
 10
-678.448924
 20
1115.187431
 10
-678.492424
 20
1115.161843
  0
LINE
  5
320
100
AcDbEntity
  8
025-DWG
  6
CONTINUOUS
100
AcDbLine
 10
-678.086423
 20
1121.995259
 30
0.0
 11
-678.086423
 21
1116.136774
 31
0.0
  0
LWPOLYLINE
  5
321
100
AcDbEntity
  8
025-DWG
  6
CONTINUOUS
100
AcDbPolyline
 90
        7
 70
   128
 43
0.0
 10
-675.028305
 20
1114.650418
 10
-675.095457
 20
1114.838737
 10
-675.166047
 20
1115.00117
 10
-675.240749
 20
1115.137637
 10
-675.318161
 20
1115.243715
 10
-675.364272
 20
1115.29065
 10
-675.410952
 20
1115.326121
  0
LWPOLYLINE
  5
322
100
AcDbEntity
  8
025-DWG
  6
CONTINUOUS
100
AcDbPolyline
 90
        9
 70
   128
 43
0.0
 10
-675.028305
 20
1114.650418
 10
-675.067326
 20
1114.490478
 10
-675.140485
 20
1114.336352
 10
-675.245124
 20
1114.193642
 10
-675.377437
 20
1114.067537
 10
-675.532617
 20
1113.96262
 10
-675.705021
 20
1113.882706
 10
-675.888383
 20
1113.830699
 10
-676.076037
 20
1113.80849
  0
LINE
  5
323
100
AcDbEntity
  8
025-DWG
  6
CONTINUOUS
100
AcDbLine
 10
-675.410952
 20
1115.326121
 30
0.0
 11
-676.142273
 21
1115.786471
 31
0.0
  0
LWPOLYLINE
  5
324
100
AcDbEntity
  8
035-DWG
  6
CONTINUOUS
100
AcDbPolyline
 90
        4
 70
   128
 43
0.0
 10
-664.53334
 20
1114.663951
 10
-664.219904
 20
1114.357753
 10
-664.073189
 20
1114.052347
 10
-664.033977
 20
1113.782739
  0
LINE
  5
325
100
AcDbEntity
  8
025-DWG
  6
CONTINUOUS
100
AcDbLine
 10
-676.142273
 20
1115.786471
 30
0.0
 11
-676.142273
 21
1121.65117
 31
0.0
  0
LWPOLYLINE
  5
326
100
AcDbEntity
  8
025-DWG
  6
CONTINUOUS
100
AcDbPolyline
 90
        3
 70
   128
 43
0.0
 10
-676.142273
 20
1121.65117
 10
-670.069421
 20
1117.788378
 10
-664.033977
 20
1113.782739
  0
LWPOLYLINE
  5
327
100
AcDbEntity
  8
025-DWG
  6
CONTINUOUS
100
AcDbPolyline
 90
        5
 70
   128
 43
0.0
 10
-678.086423
 20
1121.995259
 10
-677.297816
 20
1121.881354
 10
-676.656675
 20
1121.772076
 10
-676.23703
 20
1121.680547
 10
-676.142273
 20
1121.65117
  0
LWPOLYLINE
  5
328
100
AcDbEntity
  8
025-DWG
  6
CONTINUOUS
100
AcDbPolyline
 90
        7
 70
   128
 43
0.0
 10
-676.585301
 20
1122.495943
 10
-676.466788
 20
1122.406977
 10
-676.351008
 20
1122.284927
 10
-676.258281
 20
1122.143889
 10
-676.191385
 20
1121.988087
 10
-676.152326
 20
1121.822191
 10
-676.142273
 20
1121.65117
  0
LWPOLYLINE
  5
329
100
AcDbEntity
  8
025-DWG
  6
CONTINUOUS
100
AcDbPolyline
 90
        5
 70
   128
 43
0.0
 10
-676.142273
 20
1115.786471
 10
-676.453121
 20
1115.867741
 10
-677.003509
 20
1115.971796
 10
-677.736056
 20
1116.087175
 10
-678.086423
 20
1116.136774
  0
LWPOLYLINE
  5
32A
100
AcDbEntity
  8
025-DWG
  6
CONTINUOUS
100
AcDbPolyline
 90
        9
 70
   128
 43
0.0
 10
-676.142273
 20
1115.786471
 10
-676.171724
 20
1115.570062
 10
-676.246914
 20
1115.364086
 10
-676.364217
 20
1115.178474
 10
-676.517978
 20
1115.022175
 10
-676.700785
 20
1114.902724
 10
-676.903823
 20
1114.82588
 10
-677.117303
 20
1114.795348
 10
-677.330934
 20
1114.8126
  0
LWPOLYLINE
  5
32B
100
AcDbEntity
  8
025-DWG
  6
CONTINUOUS
100
AcDbPolyline
 90
        9
 70
   128
 43
0.0
 10
-675.410952
 20
1115.326121
 10
-675.440528
 20
1115.109352
 10
-675.515999
 20
1114.903071
 10
-675.633714
 20
1114.717259
 10
-675.787977
 20
1114.560905
 10
-675.971324
 20
1114.441574
 10
-676.174884
 20
1114.365041
 10
-676.388809
 20
1114.335008
 10
-676.602748
 20
1114.352928
  0
LWPOLYLINE
  5
32C
100
AcDbEntity
  8
025-DWG
  6
CONTINUOUS
100
AcDbPolyline
 90
        7
 70
   128
 43
0.0
 10
-676.602748
 20
1114.352928
 10
-676.493232
 20
1114.289607
 10
-676.383211
 20
1114.199605
 10
-676.271869
 20
1114.081988
 10
-676.161562
 20
1113.938714
 10
-676.118603
 20
1113.875458
 10
-676.076037
 20
1113.80849
  0
LWPOLYLINE
  5
32D
100
AcDbEntity
  8
035-DWG
  6
CONTINUOUS
100
AcDbPolyline
 90
        3
 70
   128
 43
0.0
 10
-676.593059
 20
1122.50081
 10
-670.46691
 20
1118.603637
 10
-664.533228
 20
1114.664062
  0
LWPOLYLINE
  5
32E
100
AcDbEntity
  8
025-DWG
  6
CONTINUOUS
100
AcDbPolyline
 90
        4
 70
   128
 43
0.0
 10
-683.26099
 20
1096.075161
 10
-683.216814
 20
1097.145332
 10
-683.040109
 20
1101.425997
 10
-682.527296
 20
1113.848364
  0
LWPOLYLINE
  5
32F
100
AcDbEntity
  8
025-DWG
  6
CONTINUOUS
100
AcDbPolyline
 90
        5
 70
   128
 43
0.0
 10
-682.527296
 20
1113.848364
 10
-682.575171
 20
1114.466065
 10
-682.795916
 20
1115.095051
 10
-682.877788
 20
1115.238109
 10
-682.974298
 20
1115.37966
  0
LWPOLYLINE
  5
330
100
AcDbEntity
  8
025-DWG
  6
CONTINUOUS
100
AcDbPolyline
 90
        5
 70
   128
 43
0.0
 10
-682.974298
 20
1115.37966
 10
-681.342488
 20
1115.030306
 10
-679.71645
 20
1114.668523
 10
-677.892172
 20
1114.24625
 10
-676.076037
 20
1113.80849
  0
LINE
  5
331
100
AcDbEntity
  8
025-DWG
100
AcDbLine
 10
-699.098753
 20
1168.471999
 30
0.0
 11
-699.085408
 21
1181.57296
 31
0.0
  0
LINE
  5
332
100
AcDbEntity
  8
025-DWG
100
AcDbLine
 10
-698.616609
 20
1168.142723
 30
0.0
 11
-698.601012
 21
1181.218729
 31
0.0
  0
ARC
  5
333
100
AcDbEntity
  8
035-DWG
100
AcDbCircle
 10
-698.607117
 20
1181.718692
 30
0.0
 40
0.5
100
AcDbArc
 50
196.94554
 51
270.699644
  0
ARC
  5
334
100
AcDbEntity
  8
035-DWG
100
AcDbCircle
 10
-698.628749
 20
1168.642576
 30
0.0
 40
0.5
100
AcDbArc
 50
199.947183
 51
271.391291
  0
ARC
  5
335
100
AcDbEntity
  8
035-DWG
100
AcDbCircle
 10
-699.178351
 20
1168.764305
 30
0.0
 40
1.2
100
AcDbArc
 50
199.82477
 51
271.253741
  0
ARC
  5
336
100
AcDbEntity
  8
025-DWG
100
AcDbCircle
 10
-704.854153
 20
1180.812827
 30
0.0
 40
1.2
100
AcDbArc
 50
19.947183
 51
90.0
  0
ARC
  5
337
100
AcDbEntity
  8
035-DWG
100
AcDbCircle
 10
-705.371244
 20
1180.92981
 30
0.0
 40
0.5
100
AcDbArc
 50
19.82477
 51
90.0
  0
LINE
  5
338
100
AcDbEntity
  8
035-DWG
100
AcDbLine
 10
-685.185762
 20
1167.870251
 30
0.0
 11
-685.185762
 21
1168.468923
 31
0.0
  0
LINE
  5
339
100
AcDbEntity
  8
035-DWG
100
AcDbLine
 10
-700.307233
 20
1168.357332
 30
0.0
 11
-704.900877
 21
1181.099382
 31
0.0
  0
LINE
  5
33A
100
AcDbEntity
  8
035-DWG
100
AcDbLine
 10
-685.185762
 20
1167.870251
 30
0.0
 11
-699.152095
 21
1167.564592
 31
0.0
  0
LINE
  5
33B
100
AcDbEntity
  8
025-DWG
100
AcDbLine
 10
-699.098753
 20
1168.471999
 30
0.0
 11
-703.726144
 21
1181.222212
 31
0.0
  0
LINE
  5
33C
100
AcDbEntity
  8
025-DWG
100
AcDbLine
 10
-685.185762
 20
1168.468923
 30
0.0
 11
-698.616609
 21
1168.142723
 31
0.0
  0
ARC
  5
33D
100
AcDbEntity
  8
035-DWG
100
AcDbCircle
 10
-703.602101
 20
1169.483442
 30
0.0
 40
18.444262
100
AcDbArc
 50
356.846877
 51
39.963931
  0
LINE
  5
33E
100
AcDbEntity
  8
035-DWG
100
AcDbLine
 10
-689.465516
 20
1181.330289
 30
0.0
 11
-698.601012
 21
1181.218729
 31
0.0
  0
LINE
  5
33F
100
AcDbEntity
  8
035-DWG
100
AcDbLine
 10
-518.719999
 20
1068.852239
 30
0.0
 11
-518.719999
 21
1123.286335
 31
0.0
  0
LINE
  5
340
100
AcDbEntity
  8
035-DWG
100
AcDbLine
 10
-548.019999
 20
1155.6
 30
0.0
 11
-574.919998
 21
1182.499998
 31
0.0
  0
LINE
  5
341
100
AcDbEntity
  8
035-DWG
100
AcDbLine
 10
-518.719999
 20
1128.286335
 30
0.0
 11
-518.719999
 21
1147.6
 31
0.0
  0
ARC
  5
342
100
AcDbEntity
  8
035-DWG
100
AcDbCircle
 10
-519.219999
 20
1125.786335
 30
0.0
 40
2.5
100
AcDbArc
 50
90.0
 51
270.0
  0
LINE
  5
343
100
AcDbEntity
  8
035-DWG
100
AcDbLine
 10
-519.219999
 20
1128.286335
 30
0.0
 11
-518.719999
 21
1128.286335
 31
0.0
  0
LINE
  5
344
100
AcDbEntity
  8
035-DWG
100
AcDbLine
 10
-519.219999
 20
1123.286335
 30
0.0
 11
-518.719999
 21
1123.286335
 31
0.0
  0
LINE
  5
345
100
AcDbEntity
  8
035-DWG
100
AcDbLine
 10
-508.569999
 20
1147.6
 30
0.0
 11
-508.569999
 21
1153.6
 31
0.0
  0
ARC
  5
346
100
AcDbEntity
  8
035-DWG
100
AcDbCircle
 10
-510.569999
 20
1153.6
 30
0.0
 40
2.0
100
AcDbArc
 50
0.0
 51
90.0
  0
LINE
  5
347
100
AcDbEntity
  8
035-DWG
100
AcDbLine
 10
-517.178508
 20
577.529728
 30
0.421745
 11
-517.178508
 21
947.227076
 31
0.421745
  0
LINE
  5
348
100
AcDbEntity
  8
035-DWG
100
AcDbLine
 10
-504.393776
 20
569.197472
 30
0.421745
 11
-504.393776
 21
948.345596
 31
0.421745
  0
LINE
  5
349
100
AcDbEntity
  8
035-DWG
100
AcDbLine
 10
-496.873666
 20
571.907974
 30
0.421745
 11
-496.873666
 21
949.00352
 31
0.421745
  0
LWPOLYLINE
  5
34A
100
AcDbEntity
  8
025-DWG
100
AcDbPolyline
 90
        2
 70
     0
 43
0.0
 38
0.421745
 10
-517.271529
 20
951.794243
 10
-517.291982
 20
957.829343
  0
LINE
  5
34B
100
AcDbEntity
  8
025-DWG
100
AcDbLine
 10
-515.199191
 20
957.582978
 30
0.421745
 11
-515.166704
 21
947.403086
 31
0.421745
  0
LINE
  5
34C
100
AcDbEntity
  8
025-DWG
100
AcDbLine
 10
-516.191737
 20
957.582978
 30
0.421745
 11
-516.158973
 21
947.316274
 31
0.421745
  0
LINE
  5
34D
100
AcDbEntity
  8
025-DWG
100
AcDbLine
 10
-517.167739
 20
957.519989
 30
0.421745
 11
-517.134903
 21
947.230891
 31
0.421745
  0
LINE
  5
34E
100
AcDbEntity
  8
025-DWG
100
AcDbLine
 10
-516.68605
 20
957.553309
 30
0.421745
 11
-516.653243
 21
947.273031
 31
0.421745
  0
LINE
  5
34F
100
AcDbEntity
  8
025-DWG
100
AcDbLine
 10
-515.693504
 20
957.553309
 30
0.421745
 11
-515.660974
 21
947.359843
 31
0.421745
  0
LWPOLYLINE
  5
350
100
AcDbEntity
  8
035-DWG
100
AcDbPolyline
 90
        3
 70
     0
 43
0.0
 38
0.421745
 10
-517.859318
 20
947.167513
 10
-517.826954
 20
952.728566
 10
-517.794681
 20
958.315966
  0
LINE
  5
351
100
AcDbEntity
  8
025-DWG
100
AcDbLine
 10
-509.243914
 20
957.582978
 30
0.421745
 11
-509.213089
 21
947.92396
 31
0.421745
  0
LINE
  5
352
100
AcDbEntity
  8
025-DWG
100
AcDbLine
 10
-508.745681
 20
957.553309
 30
0.421745
 11
-508.715091
 21
947.96753
 31
0.421745
  0
LINE
  5
353
100
AcDbEntity
  8
025-DWG
100
AcDbLine
 10
-509.738227
 20
957.553309
 30
0.421745
 11
-509.70736
 21
947.880717
 31
0.421745
  0
LINE
  5
354
100
AcDbEntity
  8
025-DWG
100
AcDbLine
 10
-510.23646
 20
957.582978
 30
0.421745
 11
-510.205358
 21
947.837148
 31
0.421745
  0
LINE
  5
355
100
AcDbEntity
  8
025-DWG
100
AcDbLine
 10
-511.229006
 20
957.582978
 30
0.421745
 11
-511.197628
 21
947.750336
 31
0.421745
  0
LINE
  5
356
100
AcDbEntity
  8
025-DWG
100
AcDbLine
 10
-512.221552
 20
957.582978
 30
0.421745
 11
-512.189897
 21
947.663523
 31
0.421745
  0
LINE
  5
357
100
AcDbEntity
  8
025-DWG
100
AcDbLine
 10
-513.214098
 20
957.582978
 30
0.421745
 11
-513.182166
 21
947.576711
 31
0.421745
  0
LINE
  5
358
100
AcDbEntity
  8
025-DWG
100
AcDbLine
 10
-514.206645
 20
957.582978
 30
0.421745
 11
-514.174435
 21
947.489899
 31
0.421745
  0
LINE
  5
359
100
AcDbEntity
  8
025-DWG
100
AcDbLine
 10
-514.700958
 20
957.553309
 30
0.421745
 11
-514.668705
 21
947.446656
 31
0.421745
  0
LINE
  5
35A
100
AcDbEntity
  8
025-DWG
100
AcDbLine
 10
-513.708412
 20
957.553309
 30
0.421745
 11
-513.676436
 21
947.533468
 31
0.421745
  0
LINE
  5
35B
100
AcDbEntity
  8
025-DWG
100
AcDbLine
 10
-512.715866
 20
957.553309
 30
0.421745
 11
-512.684167
 21
947.62028
 31
0.421745
  0
LINE
  5
35C
100
AcDbEntity
  8
025-DWG
100
AcDbLine
 10
-511.72332
 20
957.553309
 30
0.421745
 11
-511.691898
 21
947.707093
 31
0.421745
  0
LINE
  5
35D
100
AcDbEntity
  8
025-DWG
100
AcDbLine
 10
-510.730774
 20
957.553309
 30
0.421745
 11
-510.699629
 21
947.793905
 31
0.421745
  0
LINE
  5
35E
100
AcDbEntity
  8
025-DWG
100
AcDbLine
 10
-508.251368
 20
957.582978
 30
0.421745
 11
-508.22082
 21
948.010773
 31
0.421745
  0
LINE
  5
35F
100
AcDbEntity
  8
025-DWG
100
AcDbLine
 10
-507.753135
 20
957.553309
 30
0.421745
 11
-507.722821
 21
948.054342
 31
0.421745
  0
LINE
  5
360
100
AcDbEntity
  8
025-DWG
100
AcDbLine
 10
-502.721563
 20
958.326177
 30
0.421745
 11
-502.553353
 21
948.506612
 31
0.421745
  0
LINE
  5
361
100
AcDbEntity
  8
025-DWG
100
AcDbLine
 10
-507.258821
 20
957.582978
 30
0.421745
 11
-507.228551
 21
948.097585
 31
0.421745
  0
LINE
  5
362
100
AcDbEntity
  8
025-DWG
100
AcDbLine
 10
-506.266275
 20
957.582978
 30
0.421745
 11
-506.236282
 21
948.184397
 31
0.421745
  0
LINE
  5
363
100
AcDbEntity
  8
025-DWG
100
AcDbLine
 10
-505.273729
 20
957.582978
 30
0.421745
 11
-505.244013
 21
948.271209
 31
0.421745
  0
LINE
  5
364
100
AcDbEntity
  8
025-DWG
100
AcDbLine
 10
-504.777822
 20
957.519989
 30
0.421745
 11
-504.748445
 21
948.314566
 31
0.421745
  0
LINE
  5
365
100
AcDbEntity
  8
025-DWG
100
AcDbLine
 10
-504.703127
 20
948.318531
 30
0.421745
 11
-504.733469
 21
957.826348
 31
0.421745
  0
LINE
  5
366
100
AcDbEntity
  8
025-DWG
100
AcDbLine
 10
-504.065896
 20
958.326177
 30
0.421745
 11
-504.034146
 21
948.377059
 31
0.421745
  0
LINE
  5
367
100
AcDbEntity
  8
025-DWG
100
AcDbLine
 10
-505.768043
 20
957.553309
 30
0.421745
 11
-505.738283
 21
948.227966
 31
0.421745
  0
LINE
  5
368
100
AcDbEntity
  8
025-DWG
100
AcDbLine
 10
-506.760589
 20
957.553309
 30
0.421745
 11
-506.730552
 21
948.141154
 31
0.421745
  0
LINE
  5
369
100
AcDbEntity
  8
035-DWG
100
AcDbLine
 10
-493.721242
 20
958.326177
 30
0.421745
 11
-493.484883
 21
949.3
 31
0.421745
  0
LWPOLYLINE
  5
36A
100
AcDbEntity
  8
035-DWG
100
AcDbPolyline
 90
        5
 70
     0
 43
0.0
 38
0.421745
 10
-493.484883
 20
949.3
 10
-494.085278
 20
949.247472
 10
-495.859073
 20
949.092285
 10
-498.72535
 20
948.841519
 10
-517.859318
 20
947.167513
  0
LINE
  5
36B
100
AcDbEntity
  8
025-DWG
100
AcDbLine
 10
-517.271529
 20
951.794243
 30
0.421745
 11
-517.256932
 21
947.220215
 31
0.421745
  0
LWPOLYLINE
  5
36C
100
AcDbEntity
  8
025-DWG
100
AcDbPolyline
 90
      124
 70
     0
 43
0.0
 38
0.421745
 10
-517.271529
 20
951.794243
 10
-517.271745
 20
951.757018
 10
-517.271961
 20
951.719794
 10
-517.272177
 20
951.68257
 10
-517.272393
 20
951.645346
 10
-517.272609
 20
951.608122
 10
-517.272825
 20
951.570898
 10
-517.273042
 20
951.533674
 10
-517.273258
 20
951.496451
 10
-517.273474
 20
951.459227
 10
-517.27369
 20
951.422004
 10
-517.273906
 20
951.384781
 10
-517.274123
 20
951.347558
 10
-517.274339
 20
951.310335
 10
-517.274555
 20
951.273112
 10
-517.274771
 20
951.23589
 10
-517.274988
 20
951.198667
 10
-517.275204
 20
951.161445
 10
-517.27542
 20
951.124222
 10
-517.275636
 20
951.087
 10
-517.275853
 20
951.049778
 10
-517.276069
 20
951.012556
 10
-517.276285
 20
950.975335
 10
-517.276502
 20
950.938113
 10
-517.276718
 20
950.900892
 10
-517.276934
 20
950.86367
 10
-517.277151
 20
950.826449
 10
-517.277367
 20
950.789228
 10
-517.277583
 20
950.752007
 10
-517.2778
 20
950.714786
 10
-517.278016
 20
950.677566
 10
-517.278233
 20
950.640345
 10
-517.278449
 20
950.603125
 10
-517.278665
 20
950.565904
 10
-517.278882
 20
950.528684
 10
-517.279098
 20
950.491464
 10
-517.279315
 20
950.454244
 10
-517.279531
 20
950.417024
 10
-517.279748
 20
950.379805
 10
-517.279964
 20
950.342585
 10
-517.280181
 20
950.305366
 10
-517.280397
 20
950.268146
 10
-517.280614
 20
950.230927
 10
-517.28083
 20
950.193708
 10
-517.281047
 20
950.156489
 10
-517.281263
 20
950.119271
 10
-517.28148
 20
950.082052
 10
-517.281697
 20
950.044834
 10
-517.281913
 20
950.007615
 10
-517.28213
 20
949.970397
 10
-517.282346
 20
949.933179
 10
-517.282563
 20
949.895961
 10
-517.28278
 20
949.858743
 10
-517.282996
 20
949.821525
 10
-517.283213
 20
949.784308
 10
-517.283429
 20
949.74709
 10
-517.283646
 20
949.709873
 10
-517.283863
 20
949.672656
 10
-517.284079
 20
949.635439
 10
-517.284296
 20
949.598222
 10
-517.284513
 20
949.561005
 10
-517.28473
 20
949.523788
 10
-517.284946
 20
949.486572
 10
-517.285163
 20
949.449355
 10
-517.28538
 20
949.412139
 10
-517.285596
 20
949.374923
 10
-517.285813
 20
949.337707
 10
-517.28603
 20
949.300491
 10
-517.286247
 20
949.263275
 10
-517.286464
 20
949.226059
 10
-517.28668
 20
949.188844
 10
-517.286897
 20
949.151628
 10
-517.287114
 20
949.114413
 10
-517.287331
 20
949.077198
 10
-517.287548
 20
949.039983
 10
-517.287765
 20
949.002768
 10
-517.287981
 20
948.965553
 10
-517.288198
 20
948.928339
 10
-517.288415
 20
948.891124
 10
-517.288632
 20
948.85391
 10
-517.288849
 20
948.816696
 10
-517.289066
 20
948.779481
 10
-517.289283
 20
948.742268
 10
-517.2895
 20
948.705054
 10
-517.289717
 20
948.66784
 10
-517.289934
 20
948.630626
 10
-517.290151
 20
948.593413
 10
-517.290368
 20
948.5562
 10
-517.290585
 20
948.518986
 10
-517.290802
 20
948.481773
 10
-517.291019
 20
948.44456
 10
-517.291236
 20
948.407348
 10
-517.291453
 20
948.370135
 10
-517.29167
 20
948.332922
 10
-517.291887
 20
948.29571
 10
-517.292104
 20
948.258498
 10
-517.292321
 20
948.221285
 10
-517.292538
 20
948.184073
 10
-517.292755
 20
948.146862
 10
-517.292972
 20
948.10965
 10
-517.293189
 20
948.072438
 10
-517.293406
 20
948.035227
 10
-517.293623
 20
947.998015
 10
-517.29384
 20
947.960804
 10
-517.294058
 20
947.923593
 10
-517.294275
 20
947.886382
 10
-517.294492
 20
947.849171
 10
-517.294709
 20
947.81196
 10
-517.294926
 20
947.77475
 10
-517.295144
 20
947.737539
 10
-517.295361
 20
947.700329
 10
-517.295578
 20
947.663119
 10
-517.295795
 20
947.625908
 10
-517.296012
 20
947.588699
 10
-517.29623
 20
947.551489
 10
-517.296447
 20
947.514279
 10
-517.296664
 20
947.477069
 10
-517.296881
 20
947.43986
 10
-517.297099
 20
947.402651
 10
-517.297316
 20
947.365441
 10
-517.297533
 20
947.328232
 10
-517.297751
 20
947.291023
 10
-517.297968
 20
947.253815
 10
-517.298185
 20
947.216606
  0
LWPOLYLINE
  5
36D
100
AcDbEntity
  8
025-DWG
100
AcDbPolyline
 90
        6
 70
     0
 43
0.0
 38
0.421745
 10
-515.199191
 20
957.582978
 10
-515.13343
 20
957.439929
 10
-514.998008
 20
957.351519
 10
-514.844651
 20
957.351519
 10
-514.731937
 20
957.439929
 10
-514.702918
 20
957.582978
  0
LINE
  5
36E
100
AcDbEntity
  8
025-DWG
100
AcDbLine
 10
-514.486036
 20
957.826348
 30
0.421745
 11
-515.478582
 21
957.826348
 31
0.421745
  0
LINE
  5
36F
100
AcDbEntity
  8
035-DWG
100
AcDbLine
 10
-517.186277
 20
959.3
 30
0.421745
 11
-504.187724
 21
959.3
 31
0.421745
  0
LINE
  5
370
100
AcDbEntity
  8
025-DWG
100
AcDbLine
 10
-504.065896
 20
958.326177
 30
0.421745
 11
-517.233776
 21
958.326177
 31
0.421745
  0
LWPOLYLINE
  5
371
100
AcDbEntity
  8
025-DWG
100
AcDbPolyline
 90
        6
 70
     0
 43
0.0
 38
0.421745
 10
-516.191737
 20
957.582978
 10
-516.125976
 20
957.439929
 10
-515.990554
 20
957.351519
 10
-515.837197
 20
957.351519
 10
-515.724483
 20
957.439929
 10
-515.695464
 20
957.582978
  0
LINE
  5
372
100
AcDbEntity
  8
025-DWG
100
AcDbLine
 10
-515.478582
 20
957.826348
 30
0.421745
 11
-516.471128
 21
957.826348
 31
0.421745
  0
LWPOLYLINE
  5
373
100
AcDbEntity
  8
025-DWG
100
AcDbPolyline
 90
        4
 70
     0
 43
0.0
 38
0.421745
 10
-515.478582
 20
957.826348
 10
-515.350326
 20
957.793743
 10
-515.248062
 20
957.704663
 10
-515.199191
 20
957.582978
  0
LWPOLYLINE
  5
374
100
AcDbEntity
  8
025-DWG
100
AcDbPolyline
 90
        3
 70
     0
 43
0.0
 38
0.421745
 10
-515.695464
 20
957.582978
 10
-515.644886
 20
957.755067
 10
-515.478582
 20
957.826348
  0
LWPOLYLINE
  5
375
100
AcDbEntity
  8
025-DWG
100
AcDbPolyline
 90
        6
 70
     0
 43
0.0
 38
0.421745
 10
-517.167739
 20
957.519989
 10
-517.078956
 20
957.402119
 10
-516.944094
 20
957.342604
 10
-516.806668
 20
957.360649
 10
-516.711019
 20
957.450429
 10
-516.68801
 20
957.582978
  0
LWPOLYLINE
  5
376
100
AcDbEntity
  8
025-DWG
100
AcDbPolyline
 90
        3
 70
     0
 43
0.0
 38
0.421745
 10
-516.68801
 20
957.582978
 10
-516.637433
 20
957.755067
 10
-516.471128
 20
957.826348
  0
LINE
  5
377
100
AcDbEntity
  8
025-DWG
100
AcDbLine
 10
-517.291982
 20
957.829343
 30
0.421745
 11
-517.167739
 21
957.519989
 31
0.421745
  0
LWPOLYLINE
  5
378
100
AcDbEntity
  8
025-DWG
100
AcDbPolyline
 90
        4
 70
     0
 43
0.0
 38
0.421745
 10
-516.471128
 20
957.826348
 10
-516.342872
 20
957.793743
 10
-516.240608
 20
957.704663
 10
-516.191737
 20
957.582978
  0
LINE
  5
379
100
AcDbEntity
  8
025-DWG
100
AcDbLine
 10
-516.471128
 20
957.826348
 30
0.421745
 11
-517.236653
 21
957.826348
 31
0.421745
  0
LWPOLYLINE
  5
37A
100
AcDbEntity
  8
025-DWG
100
AcDbPolyline
 90
        2
 70
     0
 43
0.0
 38
0.421745
 10
-517.291982
 20
957.829343
 10
-517.236653
 20
957.826348
  0
LWPOLYLINE
  5
37B
100
AcDbEntity
  8
025-DWG
100
AcDbPolyline
 90
       14
 70
     0
 43
0.0
 38
0.421745
 10
-517.233776
 20
958.326177
 10
-517.233997
 20
958.287728
 10
-517.234218
 20
958.249279
 10
-517.23444
 20
958.21083
 10
-517.234661
 20
958.172381
 10
-517.234882
 20
958.133932
 10
-517.235103
 20
958.095484
 10
-517.235325
 20
958.057036
 10
-517.235546
 20
958.018587
 10
-517.235767
 20
957.980139
 10
-517.235989
 20
957.941691
 10
-517.23621
 20
957.903243
 10
-517.236432
 20
957.864796
 10
-517.236653
 20
957.826348
  0
ELLIPSE
  5
37C
100
AcDbEntity
  8
025-DWG
100
AcDbEllipse
 10
-517.29469
 20
958.313088
 30
0.421745
 11
-0.4999917225104582
 21
0.0028770507667781
 31
0.0
210
0.0
220
0.0
230
-1.0
 40
0.027079
 41
-0.000000000001634
 42
1.692773513601811
  0
LWPOLYLINE
  5
37D
100
AcDbEntity
  8
025-DWG
100
AcDbPolyline
 90
        6
 70
     0
 43
0.0
 38
0.421745
 10
-517.186277
 20
959.3
 10
-517.194051
 20
959.285822
 10
-517.216196
 20
959.0712
 10
-517.227814
 20
958.779784
 10
-517.232564
 20
958.522778
 10
-517.233776
 20
958.326177
  0
LWPOLYLINE
  5
37E
100
AcDbEntity
  8
035-DWG
100
AcDbPolyline
 90
        7
 70
     0
 43
0.0
 38
0.421745
 10
-517.794681
 20
958.315966
 10
-517.779729
 20
958.58205
 10
-517.726966
 20
958.853555
 10
-517.663403
 20
959.006894
 10
-517.52563
 20
959.175989
 10
-517.364138
 20
959.268868
 10
-517.186277
 20
959.3
  0
LINE
  5
37F
100
AcDbEntity
  8
035-DWG
100
AcDbLine
 10
-515.269999
 20
960.3
 30
0.421745
 11
-515.269999
 21
959.3
 31
0.421745
  0
LWPOLYLINE
  5
380
100
AcDbEntity
  8
025-DWG
100
AcDbPolyline
 90
        6
 70
     0
 43
0.0
 38
0.421745
 10
-510.23646
 20
957.582978
 10
-510.170699
 20
957.439929
 10
-510.035277
 20
957.351519
 10
-509.88192
 20
957.351519
 10
-509.769206
 20
957.439929
 10
-509.740187
 20
957.582978
  0
LINE
  5
381
100
AcDbEntity
  8
025-DWG
100
AcDbLine
 10
-509.523305
 20
957.826348
 30
0.421745
 11
-510.515851
 21
957.826348
 31
0.421745
  0
LWPOLYLINE
  5
382
100
AcDbEntity
  8
025-DWG
100
AcDbPolyline
 90
        4
 70
     0
 43
0.0
 38
0.421745
 10
-509.523305
 20
957.826348
 10
-509.395049
 20
957.793743
 10
-509.292785
 20
957.704663
 10
-509.243914
 20
957.582978
  0
LWPOLYLINE
  5
383
100
AcDbEntity
  8
025-DWG
100
AcDbPolyline
 90
        6
 70
     0
 43
0.0
 38
0.421745
 10
-509.243914
 20
957.582978
 10
-509.178153
 20
957.439929
 10
-509.042731
 20
957.351519
 10
-508.889374
 20
957.351519
 10
-508.77666
 20
957.439929
 10
-508.747641
 20
957.582978
  0
LWPOLYLINE
  5
384
100
AcDbEntity
  8
025-DWG
100
AcDbPolyline
 90
        3
 70
     0
 43
0.0
 38
0.421745
 10
-509.740187
 20
957.582978
 10
-509.68961
 20
957.755067
 10
-509.523305
 20
957.826348
  0
LWPOLYLINE
  5
385
100
AcDbEntity
  8
025-DWG
100
AcDbPolyline
 90
        4
 70
     0
 43
0.0
 38
0.421745
 10
-510.515851
 20
957.826348
 10
-510.387595
 20
957.793743
 10
-510.285331
 20
957.704663
 10
-510.23646
 20
957.582978
  0
LWPOLYLINE
  5
386
100
AcDbEntity
  8
025-DWG
100
AcDbPolyline
 90
        3
 70
     0
 43
0.0
 38
0.421745
 10
-510.732733
 20
957.582978
 10
-510.682156
 20
957.755067
 10
-510.515851
 20
957.826348
  0
LINE
  5
387
100
AcDbEntity
  8
035-DWG
100
AcDbLine
 10
-508.346742
 20
959.3
 30
0.421745
 11
-508.346742
 21
959.8
 31
0.421745
  0
LINE
  5
388
100
AcDbEntity
  8
035-DWG
100
AcDbLine
 10
-503.375512
 20
959.3
 30
0.421745
 11
-504.187724
 21
959.3
 31
0.421745
  0
LWPOLYLINE
  5
389
100
AcDbEntity
  8
025-DWG
100
AcDbPolyline
 90
        7
 70
     0
 43
0.0
 38
0.421745
 10
-508.251368
 20
957.582978
 10
-508.202496
 20
957.461293
 10
-508.100232
 20
957.372214
 10
-507.971977
 20
957.339608
 10
-507.852096
 20
957.372214
 10
-507.772711
 20
957.461293
 10
-507.755095
 20
957.582978
  0
LWPOLYLINE
  5
38A
100
AcDbEntity
  8
025-DWG
100
AcDbPolyline
 90
        4
 70
     0
 43
0.0
 38
0.421745
 10
-508.530759
 20
957.826348
 10
-508.402503
 20
957.793743
 10
-508.300239
 20
957.704663
 10
-508.251368
 20
957.582978
  0
LWPOLYLINE
  5
38B
100
AcDbEntity
  8
025-DWG
100
AcDbPolyline
 90
        6
 70
     0
 43
0.0
 38
0.421745
 10
-506.266275
 20
957.582978
 10
-506.200515
 20
957.439929
 10
-506.065092
 20
957.351519
 10
-505.911736
 20
957.351519
 10
-505.799021
 20
957.439929
 10
-505.770002
 20
957.582978
  0
LINE
  5
38C
100
AcDbEntity
  8
025-DWG
100
AcDbLine
 10
-505.55312
 20
957.826348
 30
0.421745
 11
-506.545666
 21
957.826348
 31
0.421745
  0
LWPOLYLINE
  5
38D
100
AcDbEntity
  8
025-DWG
100
AcDbPolyline
 90
        4
 70
     0
 43
0.0
 38
0.421745
 10
-505.55312
 20
957.826348
 10
-505.424865
 20
957.793743
 10
-505.3226
 20
957.704663
 10
-505.273729
 20
957.582978
  0
LWPOLYLINE
  5
38E
100
AcDbEntity
  8
025-DWG
100
AcDbPolyline
 90
        6
 70
     0
 43
0.0
 38
0.421745
 10
-505.273729
 20
957.582978
 10
-505.216675
 20
957.450429
 10
-505.097966
 20
957.360649
 10
-504.955906
 20
957.342604
 10
-504.83633
 20
957.402119
 10
-504.777822
 20
957.519989
  0
LINE
  5
38F
100
AcDbEntity
  8
025-DWG
100
AcDbLine
 10
-504.777822
 20
957.519989
 30
0.421745
 11
-504.733469
 21
957.826348
 31
0.421745
  0
LWPOLYLINE
  5
390
100
AcDbEntity
  8
025-DWG
100
AcDbPolyline
 90
        4
 70
     0
 43
0.0
 38
0.421745
 10
-505.770002
 20
957.582978
 10
-505.752385
 20
957.704663
 10
-505.673001
 20
957.793743
 10
-505.55312
 20
957.826348
  0
LINE
  5
391
100
AcDbEntity
  8
025-DWG
100
AcDbLine
 10
-504.733469
 20
957.826348
 30
0.421745
 11
-505.55312
 21
957.826348
 31
0.421745
  0
LWPOLYLINE
  5
392
100
AcDbEntity
  8
025-DWG
100
AcDbPolyline
 90
        4
 70
     0
 43
0.0
 38
0.421745
 10
-506.545666
 20
957.826348
 10
-506.417411
 20
957.793743
 10
-506.315147
 20
957.704663
 10
-506.266275
 20
957.582978
  0
LWPOLYLINE
  5
393
100
AcDbEntity
  8
025-DWG
100
AcDbPolyline
 90
        3
 70
     0
 43
0.0
 38
0.421745
 10
-507.538212
 20
957.826348
 10
-507.353599
 20
957.755067
 10
-507.258821
 20
957.582978
  0
LWPOLYLINE
  5
394
100
AcDbEntity
  8
025-DWG
100
AcDbPolyline
 90
        6
 70
     0
 43
0.0
 38
0.421745
 10
-507.258821
 20
957.582978
 10
-507.193061
 20
957.439929
 10
-507.057639
 20
957.351519
 10
-506.904282
 20
957.351519
 10
-506.791567
 20
957.439929
 10
-506.762548
 20
957.582978
  0
LWPOLYLINE
  5
395
100
AcDbEntity
  8
025-DWG
100
AcDbPolyline
 90
        3
 70
     0
 43
0.0
 38
0.421745
 10
-506.762548
 20
957.582978
 10
-506.711971
 20
957.755067
 10
-506.545666
 20
957.826348
  0
LINE
  5
396
100
AcDbEntity
  8
025-DWG
100
AcDbLine
 10
-506.545666
 20
957.826348
 30
0.421745
 11
-507.538212
 21
957.826348
 31
0.421745
  0
LINE
  5
397
100
AcDbEntity
  8
025-DWG
100
AcDbLine
 10
-504.065896
 20
958.326177
 30
0.421745
 11
-502.721563
 21
958.326177
 31
0.421745
  0
LINE
  5
398
100
AcDbEntity
  8
025-DWG
100
AcDbLine
 10
-507.538212
 20
957.826348
 30
0.421745
 11
-508.530759
 21
957.826348
 31
0.421745
  0
LWPOLYLINE
  5
399
100
AcDbEntity
  8
025-DWG
100
AcDbPolyline
 90
        3
 70
     0
 43
0.0
 38
0.421745
 10
-507.755095
 20
957.582978
 10
-507.704517
 20
957.755067
 10
-507.538212
 20
957.826348
  0
ELLIPSE
  5
39A
100
AcDbEntity
  8
025-DWG
100
AcDbEllipse
 10
-503.375512
 20
958.3
 30
0.421745
 11
-0.0000000000002905
 21
1.0
 31
0.0
210
0.0
220
0.0
230
-1.0
 40
0.654173
 41
0.0000000000004439
 42
1.544616388015124
  0
ELLIPSE
  5
39B
100
AcDbEntity
  8
025-DWG
100
AcDbEllipse
 10
-504.187724
 20
958.3
 30
0.421745
 11
0.0000000000001439
 21
1.0
 31
0.0
210
0.0
220
0.0
230
-1.0
 40
0.121869
 41
-0.0000000000011811
 42
1.544616388014916
  0
LINE
  5
39C
100
AcDbEntity
  8
035-DWG
100
AcDbLine
 10
-498.346742
 20
959.3
 30
0.421745
 11
-498.346742
 21
959.8
 31
0.421745
  0
ARC
  5
39D
100
AcDbEntity
  8
035-DWG
100
AcDbCircle
 10
-494.720899
 20
958.3
 30
0.421745
 40
1.0
100
AcDbArc
 50
1.5
 51
90.0
  0
LINE
  5
39E
100
AcDbEntity
  8
035-DWG
100
AcDbLine
 10
-498.346742
 20
959.8
 30
0.421745
 11
-508.346742
 21
959.8
 31
0.421745
  0
LINE
  5
39F
100
AcDbEntity
  8
025-DWG
100
AcDbLine
 10
-502.721563
 20
958.326177
 30
0.421745
 11
-493.721242
 21
958.326177
 31
0.421745
  0
LINE
  5
3A0
100
AcDbEntity
  8
035-DWG
100
AcDbLine
 10
-494.720899
 20
959.3
 30
0.421745
 11
-503.375512
 21
959.3
 31
0.421745
  0
LWPOLYLINE
  5
3A1
100
AcDbEntity
  8
025-DWG
100
AcDbPolyline
 90
        3
 70
     0
 43
0.0
 38
0.421745
 10
-508.747641
 20
957.582978
 10
-508.697063
 20
957.755067
 10
-508.530759
 20
957.826348
  0
LINE
  5
3A2
100
AcDbEntity
  8
025-DWG
100
AcDbLine
 10
-508.530759
 20
957.826348
 30
0.421745
 11
-509.523305
 21
957.826348
 31
0.421745
  0
LWPOLYLINE
  5
3A3
100
AcDbEntity
  8
025-DWG
100
AcDbPolyline
 90
        6
 70
     0
 43
0.0
 38
0.421745
 10
-514.206645
 20
957.582978
 10
-514.140884
 20
957.439929
 10
-514.005462
 20
957.351519
 10
-513.852105
 20
957.351519
 10
-513.73939
 20
957.439929
 10
-513.710371
 20
957.582978
  0
LINE
  5
3A4
100
AcDbEntity
  8
025-DWG
100
AcDbLine
 10
-513.493489
 20
957.826348
 30
0.421745
 11
-514.486036
 21
957.826348
 31
0.421745
  0
LWPOLYLINE
  5
3A5
100
AcDbEntity
  8
025-DWG
100
AcDbPolyline
 90
        6
 70
     0
 43
0.0
 38
0.421745
 10
-512.221552
 20
957.582978
 10
-512.155791
 20
957.439929
 10
-512.020369
 20
957.351519
 10
-511.867013
 20
957.351519
 10
-511.754298
 20
957.439929
 10
-511.725279
 20
957.582978
  0
LINE
  5
3A6
100
AcDbEntity
  8
025-DWG
100
AcDbLine
 10
-511.508397
 20
957.826348
 30
0.421745
 11
-512.500943
 21
957.826348
 31
0.421745
  0
LWPOLYLINE
  5
3A7
100
AcDbEntity
  8
025-DWG
100
AcDbPolyline
 90
        3
 70
     0
 43
0.0
 38
0.421745
 10
-511.725279
 20
957.582978
 10
-511.674702
 20
957.755067
 10
-511.508397
 20
957.826348
  0
LWPOLYLINE
  5
3A8
100
AcDbEntity
  8
025-DWG
100
AcDbPolyline
 90
        3
 70
     0
 43
0.0
 38
0.421745
 10
-512.500943
 20
957.826348
 10
-512.31633
 20
957.755067
 10
-512.221552
 20
957.582978
  0
LWPOLYLINE
  5
3A9
100
AcDbEntity
  8
025-DWG
100
AcDbPolyline
 90
        6
 70
     0
 43
0.0
 38
0.421745
 10
-513.214098
 20
957.582978
 10
-513.148338
 20
957.439929
 10
-513.012916
 20
957.351519
 10
-512.859559
 20
957.351519
 10
-512.746844
 20
957.439929
 10
-512.717825
 20
957.582978
  0
LWPOLYLINE
  5
3AA
100
AcDbEntity
  8
025-DWG
100
AcDbPolyline
 90
        3
 70
     0
 43
0.0
 38
0.421745
 10
-512.717825
 20
957.582978
 10
-512.667248
 20
957.755067
 10
-512.500943
 20
957.826348
  0
LWPOLYLINE
  5
3AB
100
AcDbEntity
  8
025-DWG
100
AcDbPolyline
 90
        4
 70
     0
 43
0.0
 38
0.421745
 10
-513.493489
 20
957.826348
 10
-513.365234
 20
957.793743
 10
-513.26297
 20
957.704663
 10
-513.214098
 20
957.582978
  0
LWPOLYLINE
  5
3AC
100
AcDbEntity
  8
025-DWG
100
AcDbPolyline
 90
        3
 70
     0
 43
0.0
 38
0.421745
 10
-513.710371
 20
957.582978
 10
-513.659794
 20
957.755067
 10
-513.493489
 20
957.826348
  0
LINE
  5
3AD
100
AcDbEntity
  8
025-DWG
100
AcDbLine
 10
-512.500943
 20
957.826348
 30
0.421745
 11
-513.493489
 21
957.826348
 31
0.421745
  0
LWPOLYLINE
  5
3AE
100
AcDbEntity
  8
025-DWG
100
AcDbPolyline
 90
        4
 70
     0
 43
0.0
 38
0.421745
 10
-514.486036
 20
957.826348
 10
-514.35778
 20
957.793743
 10
-514.255516
 20
957.704663
 10
-514.206645
 20
957.582978
  0
LWPOLYLINE
  5
3AF
100
AcDbEntity
  8
025-DWG
100
AcDbPolyline
 90
        3
 70
     0
 43
0.0
 38
0.421745
 10
-514.702918
 20
957.582978
 10
-514.65234
 20
957.755067
 10
-514.486036
 20
957.826348
  0
LWPOLYLINE
  5
3B0
100
AcDbEntity
  8
025-DWG
100
AcDbPolyline
 90
        4
 70
     0
 43
0.0
 38
0.421745
 10
-511.508397
 20
957.826348
 10
-511.380141
 20
957.793743
 10
-511.277877
 20
957.704663
 10
-511.229006
 20
957.582978
  0
LWPOLYLINE
  5
3B1
100
AcDbEntity
  8
025-DWG
100
AcDbPolyline
 90
        6
 70
     0
 43
0.0
 38
0.421745
 10
-511.229006
 20
957.582978
 10
-511.163245
 20
957.439929
 10
-511.027823
 20
957.351519
 10
-510.874466
 20
957.351519
 10
-510.761752
 20
957.439929
 10
-510.732733
 20
957.582978
  0
LINE
  5
3B2
100
AcDbEntity
  8
025-DWG
100
AcDbLine
 10
-510.515851
 20
957.826348
 30
0.421745
 11
-511.508397
 21
957.826348
 31
0.421745
  0
LINE
  5
3B3
100
AcDbEntity
  8
035-DWG
100
AcDbLine
 10
-861.863145
 20
1196.1
 30
0.0
 11
-759.319999
 21
1196.1
 31
0.0
  0
ARC
  5
3B4
100
AcDbEntity
  8
035-DWG
100
AcDbCircle
 10
-861.863145
 20
1192.1
 30
0.0
 40
4.0
100
AcDbArc
 50
90.0
 51
135.0
  0
LINE
  5
3B5
100
AcDbEntity
  8
035-DWG
100
AcDbLine
 10
-590.176854
 20
1196.1
 30
0.0
 11
-692.719999
 21
1196.1
 31
0.0
  0
LINE
  5
3B6
100
AcDbEntity
  8
035-DWG
100
AcDbLine
 10
-692.431324
 20
1204.1
 30
0.0
 11
-759.608675
 21
1204.1
 31
0.0
  0
LINE
  5
3B7
100
AcDbEntity
  8
025-DWG
100
AcDbLine
 10
-694.885063
 20
1199.85
 30
0.0
 11
-757.154936
 21
1199.85
 31
0.0
  0
LINE
  5
3B8
100
AcDbEntity
  8
035-DWG
100
AcDbLine
 10
-704.901916
 20
1197.745612
 30
0.0
 11
-747.138083
 21
1197.745612
 31
0.0
  0
LINE
  5
3B9
100
AcDbEntity
  8
035-DWG
100
AcDbLine
 10
-757.154936
 20
1193.424673
 30
0.0
 11
-759.608675
 21
1197.674673
 31
0.0
  0
LINE
  5
3BA
100
AcDbEntity
  8
025-DWG
100
AcDbLine
 10
-750.486067
 20
1189.674673
 30
0.0
 11
-759.319999
 21
1189.674673
 31
0.0
  0
ARC
  5
3BB
100
AcDbEntity
  8
035-DWG
100
AcDbCircle
 10
-759.319999
 20
1192.174673
 30
0.0
 40
2.5
100
AcDbArc
 50
270.0
 51
30.0
  0
LINE
  5
3BC
100
AcDbEntity
  8
025-DWG
100
AcDbLine
 10
-749.343473
 20
1193.424673
 30
0.0
 11
-757.154936
 21
1193.424673
 31
0.0
  0
ARC
  5
3BD
100
AcDbEntity
  8
035-DWG
100
AcDbCircle
 10
-759.319999
 20
1198.6
 30
0.0
 40
2.5
100
AcDbArc
 50
270.0
 51
283.437246
  0
LINE
  5
3BE
100
AcDbEntity
  8
025-DWG
100
AcDbLine
 10
-758.699536
 20
1196.1
 30
0.0
 11
-759.319999
 21
1196.1
 31
0.0
  0
LINE
  5
3BF
100
AcDbEntity
  8
035-DWG
100
AcDbLine
 10
-757.154936
 20
1199.85
 30
0.0
 11
-759.608675
 21
1204.1
 31
0.0
  0
LINE
  5
3C0
100
AcDbEntity
  8
035-DWG
100
AcDbLine
 10
-747.544557
 20
1197.674673
 30
0.0
 11
-759.608675
 21
1197.674673
 31
0.0
  0
ARC
  5
3C1
100
AcDbEntity
  8
035-DWG
100
AcDbCircle
 10
-759.319999
 20
1198.6
 30
0.0
 40
2.5
100
AcDbArc
 50
338.276324
 51
30.0
  0
ARC
  5
3C2
100
AcDbEntity
  8
035-DWG
100
AcDbCircle
 10
-747.138083
 20
1196.545612
 30
0.0
 40
1.2
100
AcDbArc
 50
90.0
 51
163.05446
  0
LINE
  5
3C3
100
AcDbEntity
  8
035-DWG
100
AcDbLine
 10
-694.885063
 20
1193.424673
 30
0.0
 11
-692.431324
 21
1197.674673
 31
0.0
  0
LINE
  5
3C4
100
AcDbEntity
  8
025-DWG
100
AcDbLine
 10
-694.885063
 20
1193.424673
 30
0.0
 11
-702.696526
 21
1193.424673
 31
0.0
  0
LINE
  5
3C5
100
AcDbEntity
  8
025-DWG
100
AcDbLine
 10
-692.719999
 20
1189.674673
 30
0.0
 11
-701.553932
 21
1189.674673
 31
0.0
  0
ARC
  5
3C6
100
AcDbEntity
  8
035-DWG
100
AcDbCircle
 10
-692.719999
 20
1192.174673
 30
0.0
 40
2.5
100
AcDbArc
 50
150.0
 51
270.0
  0
ARC
  5
3C7
100
AcDbEntity
  8
035-DWG
100
AcDbCircle
 10
-692.719999
 20
1198.6
 30
0.0
 40
2.5
100
AcDbArc
 50
150.0
 51
201.723676
  0
ARC
  5
3C8
100
AcDbEntity
  8
035-DWG
100
AcDbCircle
 10
-692.719999
 20
1198.6
 30
0.0
 40
2.5
100
AcDbArc
 50
256.562754
 51
270.0
  0
LINE
  5
3C9
100
AcDbEntity
  8
035-DWG
100
AcDbLine
 10
-694.885063
 20
1199.85
 30
0.0
 11
-692.431324
 21
1204.1
 31
0.0
  0
LINE
  5
3CA
100
AcDbEntity
  8
025-DWG
100
AcDbLine
 10
-692.719999
 20
1196.1
 30
0.0
 11
-693.340462
 21
1196.1
 31
0.0
  0
ARC
  5
3CB
100
AcDbEntity
  8
035-DWG
100
AcDbCircle
 10
-704.901916
 20
1196.545612
 30
0.0
 40
1.2
100
AcDbArc
 50
16.94554
 51
90.0
  0
LINE
  5
3CC
100
AcDbEntity
  8
035-DWG
100
AcDbLine
 10
-692.431324
 20
1197.674673
 30
0.0
 11
-704.495442
 21
1197.674673
 31
0.0
  0
ARC
  5
3CD
100
AcDbEntity
  8
035-DWG
100
AcDbCircle
 10
-590.176854
 20
1192.1
 30
0.0
 40
4.0
100
AcDbArc
 50
45.0
 51
90.0
  0
ENDSEC
  0
SECTION
  2
OBJECTS
  0
DICTIONARY
  5
1A
100
AcDbDictionary
  3
ACAD_GROUP
350
18
  3
ACAD_MLINESTYLE
350
19
  0
DICTIONARY
  5
18
102
{ACAD_REACTORS
330
1A
102
}
100
AcDbDictionary
  0
DICTIONARY
  5
19
102
{ACAD_REACTORS
330
1A
102
}
100
AcDbDictionary
  3
STANDARD
350
1D
  0
MLINESTYLE
  5
1D
102
{ACAD_REACTORS
330
19
102
}
100
AcDbMlineStyle
  2
STANDARD
 70
     0
  3

 62
     0
 51
90.0
 52
90.0
 71
     2
 49
0.5
 62
   256
  6
BYLAYER
 49
-0.5
 62
   256
  6
BYLAYER
  0
ENDSEC
  0
EOF
